Oops, an error
Loading. Please wait.

Enemy Bass Tab

version 1
version 1

Whole song

Interactive

3,579 views 1 this week
1 commentread comment
1 2 3 4 5
accurate
x 7
add to favorites
launch autoscroll
font size
0
reset
guitar tuner
Autoscroll
slow
fast
+/-
esc
set tempo
stop
Help us to improve Ultimate-Guitar.com Take our survey!
×
Author
Difficulty
Tuning
novice
D A D G B E
Song: The Enemy
Band: Godsmack
Album: IV
Year: 2006
BASS TAB
Tuning: Drop D

Intro:

 |               (x2)               |    (x8)   |
G|----------------------------------|-----------|
D|----------------------------------|-----------|
A|----------------------------------|-----------|
D|--0-0-0--0-0-0--0--0--0--0-0-0-0--|--0-0-0-0--|

Verse (x8)

G|----------------------------------|
D|----------------------------------|
A|----------------------------------|
D|--0-0-0--0-0-0--0--0--0--0-0-0-0--|

Chorus:

G|-----------------------------------------------------------|
D|-----------------------------------------------------------|
A|-----------------------------------------------------------|
D|--8~~~~~~~~~--6~~~~~~~~~~~~~~~~~~~~~~~~~~~~~--4~~~~~~~~~~--|

G|--------------------|
D|--------------------|
A|--------------------|
D|--4--0-4-0-4-0-4-0--|

G|-----------------------------------------------------------|
D|-----------------------------------------------------------|
A|-----------------------------------------------------------|
D|--8~~~~~~~~~--6~~~~~~~~~~~~~~~~~~~~~~~~~~~~~--4~~~~~~~~~~--|

G|--------------------|-----------|
D|--------------------|-----------|
A|--------------------|-----------|
D|--2--0-2-0-2-0-2-0--|--3-2-1-0--|

G|-----------------------------------------------------------|
D|-----------------------------------------------------------|
A|-----------------------------------------------------------|
D|--8~~~~~~~~~--6~~~~~~~~~~~~~~~~~~~~~~~~~~~~~--4~~~~~~~~~~--|

G|--------------------|
D|--------------------|
A|--------------------|
D|--4--0-4-0-4-0-4-0--|

G|----------------------------------------------|
D|----------------------------------------------|
A|----------------------------------------------|
D|--8~~~~~~~~~--6~~~~~~~~~~~~~~~~~~~~~~~~~~~~~--|

G|------------------|---------|
D|------------------|---------|
A|------------------|---------|
D|--4--0-4-0-4-0-4--|--0-2-0--|

Post Chorus 1:

G|----------------------------------|
D|----------------------------------|
A|----------------------------------| (x3)
D|--0-0-0--0-0-0--0--0--0--0-0-0-0--|

 |  (x4) |  
G|-------|-------|
D|-------|-------|
A|-------|-------|
D|--0-4--|--3-2--|

Verse (x8)
Chorus

Post Chorus 2:

 |               (x2)               |    (x8)   |
G|----------------------------------|-----------|
D|----------------------------------|-----------|
A|----------------------------------|-----------|
D|--0-0-0--0-0-0--0--0--0--0-0-0-0--|--0-0-0-0--|

During Solo (x4)

G|-------------------------------|-------------------------------|
D|-------------------------------|-------------------------------|
A|-------------------------------|-------------------------------|
D|--0-0-0-2--0--0-0--0--6-0-6-0--|--0-0-0-2--0--0-0--0--1-0-1-0--|

Bridge (x8)

G|------------------------|
D|------------------------|
A|------------------------|
D|--0-0-0-2--0--3\2--3\2--|

During Solo (x4)
Chorus

Outro (x4)

G|----------------------------------|
D|----------------------------------|
A|----------------------------------|
D|--0-0-0--0-0-0--0--0--0--0-0-0-0--|

END

Suggest correction
comments
print report bad tab
1 comment total.
+1 reply
St. Fixxxer 182 wrote on October 7 2010, 03:18 pm

This tab ****ing sucks. The chorus is so wrong.

guest
You may want to rate the tab now too:
select rating
Please do not post tabs as comments. Select "correction" instead!