Oops, an error
Loading. Please wait.

Enemy Bass Tab

version 2
version 2

Whole song

Interactive

649 views 1 this week
1 commentread comment
1 2 3 4 5
3 more votes to show rating
add to favorites
launch autoscroll
font size
0
reset
guitar tuner
Autoscroll
slow
fast
+/-
esc
set tempo
stop
Help us to improve Ultimate-Guitar.com Take our survey!
×
Author
Difficulty
G----------------------------------------------------------------------------|
D----------------------------------------------------------------------------|
A----------------------------------------------------------------------------|
E-0-0-0---0-0-0-0---0----0--0-0-0-0--0-0-0---0-0-0-0--0---0--6-6-6-6---------|

G----------------------------------------------------------------------------|
D----------------------------------------------------------------------------|
A----------------------------------------------------------------------------|
E-0-0-0---0-0-0-0---0----0--0-0-0-0--0-0-0---0-0-0-0--0-3-3-3-3--3-3-3-3-----|

G-----------------------------------------------------------------------------|
D-----------------------------------------------------------------------------|
A---------------------------------1--3--3--3-3-3-3--3-6-6-6--6-6-6-6----------|
E-0--0---0-0-3-0--0-0-0-0---0-3-3---------------------------------------------|

G----------------------------------------------------------------------------|
D----------------------------------------------------------------------------|
A---------------------------------1--3--3--3-3-3-3--3-1-1-1--1-0-0-0---------|
E-0--0---0-0-3-0--0-0-0-0---0-3-3--------------------------------------------|

G----------------------------------------------------------------------------|
D----------------------------------------------------------------------------|
A----------------------------------------------------------------------------|
E-0--0---0-0-3-0--0-0-0-0---0-3-3-1--0-10--0-10--0-8--8-8-8-8--8-7-7-7-------|

G----------------------------------------------------------------------------|
D----------------------------------------------------------------------------|
A----------------------------------------------------------------------------|
E-0-0-0--0-0-0-0---0--0-0-0-10--0-7-8-0--5-7-0-3--5-0-2-3--0-1-1-1-----------|

G----------------------------------------------------------------------------|
D----------------------------------------------------------------------------|
A----------------------------------------------------------------------------|
E-13-12-0--0--13-12--12-0--0-18-17-17-17--12-13-0--0--13-12-12-0-0-10--10-10-|

G----------------------------------------------------------------------------|
D----------------------------------------------------------------------------|
A----------------------------------------------------------------------------|
E-0-0-0-0--1-0-0-0--0-1-0-0--1-0-0-0--0-0-0-0--1-0-0-0--0-1-0-0--1-0-3-------|

G----------------------------------------------------------------------------|
D----------------------------------------------------------------------------|
A----------------------------------------------------------------------------|
E-0-0-0-0--1-0-0-0--0-1-0-0--1-0-0-0--0-0-0-0--1-0-0-0--0-1-0-0--1-0-3-0-----|

G-----------------------------------------------------------------------------|
D-----------------------------------------------------------------------------|
A---------------------------------1--3--3--3-3-3-3--3-6-6-6--6-6-6-6----------|
E-0--0---0-0-3-0--0-0-0-0---0-3-3---------------------------------------------|

G----------------------------------------------------------------------------|
D----------------------------------------------------------------------------|
A---------------------------------1--3--3--3-3-3-3--3-1-1-1--1-0-0-0---------|
E-0--0---0-0-3-0--0-0-0-0---0-3-3--------------------------------------------|

G----------------------------------------------------------------------------|
D----------------------------------------------------------------------------|
A----------------------------------------------------------------------------|
E-0--0---0-0-3-0--0-0-0-0---0-3-3-1--0-10--0-10--0-8--8-8-8-8--8-7-7-7-------|

G----------------------------------------------------------------------------|
D----------------------------------------------------------------------------|
A----------------------------------------------------------------------------|
E----0--------0----------------------6--6-6--6-6-6-6--6-6-6-6--6-6-6-6-------|


play this 3 times
G----------------------------------------------------------------------------|
D----------------------------------------------------------------------------|
A----------------------------------------------------------------------------|
E-0-0-0--0-0-0-0--0---0--0-0-0-0--0---0--0---0-0-0-0-------------------------|
Suggest correction
Give kudos to tab author, rate the tab!
1 2 3 4 5
comments
print report bad tab
1 comment total.
0 reply
QwaQwaFruit 240 Aug 17, 2013 01:57 PM

It's not labeled as the correct tuning, you tabbed it as DADG, but you have EADG on all of the strings. Also, organize this monster. It all sounds good if you piece it together but jesus christ, label the parts or SOMETHING.

guest
You may want to rate the tab now too:
select rating
Wanna post a correction for this tab? Suggest correction