Oops, an error
Loading. Please wait.

Enemy Tab

version 3
version 3

Whole song

Interactive

1,836 views 1 this week
4 commentsread comments
1 2 3 4 5
accurate
x 3
add to favorites
launch autoscroll
font size
0
reset
how to read this tab
guitar tuner
Autoscroll
slow
fast
+/-
esc
set tempo
stop
Help us to improve Ultimate-Guitar.com Take our survey!
×
Author
Difficulty
The Enemy
Godsmack
Track number 3 from IV
Tunning: Standard drop D (DADGBE); Or as Godsmack play it: 1 full step down drop C (CGCFAD)

Great havey song easy to play , and many open chords. I think must of this is ok, have fun with it.

Intro
e||-----------------------------------------||
B||-----------------------------------------||
G||-----------------------------------------|| x2 (not sure of the timing, i guess you understand 
D||--x-x-x--0--0---x-x-x-x-x--0--0---x-x-x--||     the idea, follow the drums)    
A||--0-0-0--0--0---0-0-0-0-0--0--0---0-0-0--||
D||--0-0-0--0--0---0-0-0-0-0--0--0---0-0-0--||
Pm   . . .         . . . . .         . . .

e||----x-x---||
B||----x-x---||
G||----8\7---|| x12 (until verse begins)
D||----0(0)--||
A||----6\5---||
D||---(0)x---||

Verse 1 & Verse 2 (Play what´s shown twice, once for each verse)

e||-----------------------------------------||
B||-----------------------------------------||
G||-----------------------------------------||  
D||--x-x-x--0--0---x-x-x-x-x--0--0---x-x-x--||         
A||--0-0-0--0--0---0-0-0-0-0--0--0---0-0-0--||
D||--0-0-0--0--0---0-0-0-0-0--0--0---0-0-0--||
Pm   . . .         . . . . .         . . .

e||-------------------------------------------||
B||-------------------------------------------||
G||-------------------------------------------||  
D||--x-x-x--0--0---x-x-x-x-x--0--0---x-1-1p0--||         
A||--0-0-0--0--0---0-0-0-0-0--0--0---0-1-1p0--||
D||--0-0-0--0--0---0-0-0-0-0--0--0---0-1-1p0--||
Pm   . . .         . . . . .         

e||-----------------------------------------||
B||-----------------------------------------||
G||-----------------------------------------||  
D||--x-x-x--0--0---x-x-x-x-x--0--0---x-x-x--||         
A||--0-0-0--0--0---0-0-0-0-0--0--0---0-0-0--||
D||--0-0-0--0--0---0-0-0-0-0--0--0---0-0-0--||
Pm   . . .         . . . . .         . . .

e||----------------------------------------------||
B||----------------------------------------------||
G||----------------------------------------------||  
D||--x-x-x--0--0---x-x-x-x-x--0--0---3-3-3p1.p0--||         
A||--0-0-0--0--0---0-0-0-0-0--0--0---3-3-3p1.p0--||
D||--0-0-0--0--0---0-0-0-0-0--0--0---3-3-3p1.p0--||
Pm   . . .         . . . . .        



Chorus  (keep on laying the chods even if they are not shown on the pattern, i´m kimd of feeling lazy today)

e||--x-------------------------|------------------------------------||
B||--2-------------------------|------------------------------------||
G||--3-------------------------|--5---------------------------------||
D||--0-------------------------|--5-------------------8-8-8-8-8-8---||
A||--0-------------------------|--3-------------------6-6-6-6-6-6---||
D||--0-------------------------|------------------------------------||

e||--x-------------------------|------------------------------------||
B||--2-------------------------|------------------------------------||
G||--3-------------------------|--5---------------------------------||
D||--0-------------------------|--5--------------------3-3-3-3-3-3--||
A||--0-------------------------|--3--------------------1-1-1-1-1-1--||
D||--0-------------------------|------------------------------------||

e||--x-------------------------|------------------------------------||
B||--2-------------------------|------------------------------------||
G||--3-------------------------|--5---------------------------------||
D||--0-------------------------|--5--------------------8-8-8-8-8-8--||
A||--0-------------------------|--3--------------------6-6-6-6-6-6--||
D||--0-------------------------|------------------------------------||

e||--x-------------------------|----------------------||
B||--2-------------------------|----------------------||
G||--3-------------------------|----------------------||
D||--0-------------------------|--3\5-5-5--3-3-3-3-3--||
A||--0-------------------------|--1\3-3-3--1-1-1-1-1--||
D||--0-------------------------|----------------------||


Pre-verse

e||-----------------------------------------||
B||-----------------------------------------||
G||-----------------------------------------||  
D||--x-x-x--0--0---x-x-x-x-x--0--0---x-x-x--||         
A||--0-0-0--0--0---0-0-0-0-0--0--0---0-0-0--||
D||--0-0-0--0--0---0-0-0-0-0--0--0---0-0-0--||
Pm   . . .         . . . . .         . . .

e||-------------------------------------------||
B||-------------------------------------------||
G||-------------------------------------------||  
D||--x-x-x--0--0---x-x-x-x-x--0--0---x-1-1p0--||         
A||--0-0-0--0--0---0-0-0-0-0--0--0---0-1-1p0--||
D||--0-0-0--0--0---0-0-0-0-0--0--0---0-1-1p0--||

e||-----------------------------------------||
B||-----------------------------------------||
G||-----------------------------------------||  
D||--x-x-x--0--0---x-x-x-x-x--0--0---x-x-x--||         
A||--0-0-0--0--0---0-0-0-0-0--0--0---0-0-0--||
D||--0-0-0--0--0---0-0-0-0-0--0--0---0-0-0--||
Pm   . . .         . . . . .         . . .

e||----------------------------------||
B||----------------------------------||
G||----------------------------------|| (NOT SURE OF THIS BUT IS SOMTHING LIKE THAT)
D||----------------------------------||
A||-1p0--1h0-0h3p0-0h1p0-3p1p0-------||
D||-----0----------------------3p1p0-||
   WAH-WAH EFECT

Verse 3 & Verse 4 (Play what´s shown twice, once for each verse)

e||-----------------------------------------||
B||-----------------------------------------||
G||-----------------------------------------||  
D||--x-x-x--0--0---x-x-x-x-x--0--0---x-x-x--||         
A||--0-0-0--0--0---0-0-0-0-0--0--0---0-0-0--||
D||--0-0-0--0--0---0-0-0-0-0--0--0---0-0-0--||
Pm   . . .         . . . . .         . . .

e||-------------------------------------------||
B||-------------------------------------------||
G||-------------------------------------------||  
D||--x-x-x--0--0---x-x-x-x-x--0--0---x-1-1p0--||         
A||--0-0-0--0--0---0-0-0-0-0--0--0---0-1-1p0--||
D||--0-0-0--0--0---0-0-0-0-0--0--0---0-1-1p0--||
Pm   . . .         . . . . .         

e||-----------------------------------------||
B||-----------------------------------------||
G||-----------------------------------------||  
D||--x-x-x--0--0---x-x-x-x-x--0--0---x-x-x--||         
A||--0-0-0--0--0---0-0-0-0-0--0--0---0-0-0--||
D||--0-0-0--0--0---0-0-0-0-0--0--0---0-0-0--||
Pm   . . .         . . . . .         . . .

e||----------------------------------------------||
B||----------------------------------------------||
G||----------------------------------------------||  
D||--x-x-x--0--0---x-x-x-x-x--0--0---3-3-3p1.p0--||         
A||--0-0-0--0--0---0-0-0-0-0--0--0---3-3-3p1.p0--||
D||--0-0-0--0--0---0-0-0-0-0--0--0---3-3-3p1.p0--||
Pm   . . .         . . . . .        


Chorus  (keep on laying the chods even if they are not shown on the pattern, i´m kimd of feeling lazy today)

e||--x-------------------------|------------------------------------||
B||--2-------------------------|------------------------------------||
G||--3-------------------------|--5---------------------------------||
D||--0-------------------------|--5-------------------8-8-8-8-8-8---||
A||--0-------------------------|--3-------------------6-6-6-6-6-6---||
D||--0-------------------------|------------------------------------||

e||--x-------------------------|------------------------------------||
B||--2-------------------------|------------------------------------||
G||--3-------------------------|--5---------------------------------||
D||--0-------------------------|--5--------------------3-3-3-3-3-3--||
A||--0-------------------------|--3--------------------1-1-1-1-1-1--||
D||--0-------------------------|------------------------------------||

e||--x-------------------------|------------------------------------||
B||--2-------------------------|------------------------------------||
G||--3-------------------------|--5---------------------------------||
D||--0-------------------------|--5--------------------8-8-8-8-8-8--||
A||--0-------------------------|--3--------------------6-6-6-6-6-6--||
D||--0-------------------------|------------------------------------||

e||--x-------------------------|----------------------||
B||--2-------------------------|----------------------||
G||--3-------------------------|----------------------||
D||--0-------------------------|--3\5-5-5--3-3-3-3-3--||
A||--0-------------------------|--1\3-3-3--1-1-1-1-1--||
D||--0-------------------------|----------------------||


Bridge

e||-----------------------------------------||
B||-----------------------------------------||
G||-----------------------------------------|| x2
D||--x-x-x--0--0---x-x-x-x-x--0--0---x-x-x--||         
A||--0-0-0--0--0---0-0-0-0-0--0--0---0-0-0--||
D||--0-0-0--0--0---0-0-0-0-0--0--0---0-0-0--||
Pm   . . .         . . . . .         . . .

e||----x-x---||
B||----x-x---||
G||----8\7---|| x12 
D||----0(0)--||
A||----6\5---||
D||---(0)x---||

e||----x-x---x-x-------------x-x---x-x---x-x---||
B||----x-x---x-x-------------x-x---x-x---x-x---||
G||----8\7---8\7-------------8\7---8\7---5-5---||  x4 (after second time the wierd wah-wah sounds star)
D||----0(0)--0(0)---6.\5-5---0(0)--0(0)--0-0---||
A||----6\5---6\5----x--x-x---6\5---6\5---3-3---||
D||---(0)x---(0)x---6.\5-5---(0)x--(0)x--x-x---||

Wierd wah-wah sounds (each notes last quite a while, the wah-wah is so powefull
                      that you cant almost hear is a note there, use a lot of it)
                     (all this is as long ans twice the riff above)
e||-----|------|-----|------||
B||-----|------|-----|------||
G||--7--|--10--|--7--|--5---||
D||-----|------|-----|------||
A||-(5)-|-(8)--|-(5)-|-(3)--||
D||-----|------|-----|------||

Voisce strar

  (reapeat until the "JAKE-MATE" PART STARTS)
e||-----------------------------|-----------------------------------||
B||-----------------------------|-----------------------------------||
G||-----------------------------|-----------------------------------||
D||--0-0-0-0-0--0--0---0-1-1p0--|--0-0-0-0-0--0--0---0-1-1p0-1-1p0--||
A||--0-0-0-0-0--0--0---0-1-1p0--|--0-0-0-0-0--0--0---0-1-1p0-1-1p0--||
D||--0-0-0-0-0--0--0---0-1-1p0--|--0-0-0-0-0--0--0---0-1-1p0-1-1p0--||


"JAKE-MATE" PART
e||----x-x---x-x-------------x-x---x-x---x-x---||
B||----x-x---x-x-------------x-x---x-x---x-x---||
G||----8\7---8\7-------------8\7---8\7---5-5---||  x4 (after second time the wierd wah-wah sounds star)
D||----0(0)--0(0)---6.\5-5---0(0)--0(0)--0-0---||
A||----6\5---6\5----x--x-x---6\5---6\5---3-3---||
D||---(0)x---(0)x---6.\5-5---(0)x--(0)x--x-x---||

Wierd wah-wah sounds (each notes last quite a while, the wah-wah is so powefull
                      that you cant almost hear is a note there, use a lot of it)
                     (all this is as long ans twice the riff above)
e||-----|------|-----|------||
B||-----|------|-----|------||
G||--7--|--10--|--7--|--5---||
D||-----|------|-----|------||
A||-(5)-|-(8)--|-(5)-|-(3)--||
D||-----|------|-----|------||

(END OF THE BRIDGE, FINALLY)

Drums-mini solo (before the chorus starts)

Chorus  (keep on laying the chods even if they are not shown on the pattern, i´m kimd of feeling lazy today)

e||--x-------------------------|------------------------------------||
B||--2-------------------------|------------------------------------||
G||--3-------------------------|--5---------------------------------||
D||--0-------------------------|--5-------------------8-8-8-8-8-8---||
A||--0-------------------------|--3-------------------6-6-6-6-6-6---||
D||--0-------------------------|------------------------------------||

e||--x-------------------------|------------------------------------||
B||--2-------------------------|------------------------------------||
G||--3-------------------------|--5---------------------------------||
D||--0-------------------------|--5--------------------3-3-3-3-3-3--||
A||--0-------------------------|--3--------------------1-1-1-1-1-1--||
D||--0-------------------------|------------------------------------||

e||--x-------------------------|------------------------------------||
B||--2-------------------------|------------------------------------||
G||--3-------------------------|--5---------------------------------||
D||--0-------------------------|--5--------------------8-8-8-8-8-8--||
A||--0-------------------------|--3--------------------6-6-6-6-6-6--||
D||--0-------------------------|------------------------------------||

e||--x-------------------------|----------------------||
B||--2-------------------------|----------------------||
G||--3-------------------------|----------------------||
D||--0-------------------------|--3\5-5-5--3-3-3-3-3--||
A||--0-------------------------|--1\3-3-3--1-1-1-1-1--||
D||--0-------------------------|----------------------||

Outro: reapet a few times until the song ends

e||-----------------------------------------||
B||-----------------------------------------||
G||-----------------------------------------||  
D||--x-x-x--0--0---x-x-x-x-x--0--0---x-x-x--||         
A||--0-0-0--0--0---0-0-0-0-0--0--0---0-0-0--||
D||--0-0-0--0--0---0-0-0-0-0--0--0---0-0-0--||
Pm   . . .         . . . . .         . . .
Suggest correction
Give kudos to tab author, rate the tab!
1 2 3 4 5
comments
print report bad tab
4 comments total. Showing first comments.
0 reply
nehtawalyak 10 wrote on December 13 2006, 08:36 pm

this is wrong i tried it it sounds ok but no its not right

0 reply
Kreuger 791 wrote on March 14 2007, 11:51 am

Seems alright. Sully says "Check mate"

0 reply
Huffman 10 wrote on February 1 2009, 01:46 pm

not gunna lie it prity mcuh suxx... i mean the rhythem is there and what nopt but its just mostly wrong .. except the chorus

guest
You may want to rate the tab now too:
select rating
Please do not post tabs as comments. Select "correction" instead!