Oops, an error
Loading. Please wait.

Faceless Bass Tab

version 1
version 1

Album

Whole song

Interactive

1,898 views 1 this week
1 commentread comment
1 2 3 4 5
accurate
x 2
add to favorites
launch autoscroll
font size
0
reset
guitar tuner
Tab Pro tools
  • play this tab
  • loop segment
  • change instrument
  • show fretboard
  • metronome
Autoscroll
slow
fast
+/-
esc
set tempo
stop
Contributor
Band- Godsmack
Album- Faceless

Track Listings:
1.Straight Out Of Line
2.Faceless
3.Changes
4.Make Me Believe
5.I Stand Alone
6.Re-Align
7.I Fucking Hate You
8.Releasing The Demons
9.Dead And Broken
10.I Am
11.The Awakening
12.Serenity

------------------------------------------------

1.STRAIGHT OUT OF LINE

Intro  (0:00)
F----------------------------------------------------------------------|
C----------------------------------------------------------------------|  X2
G----------------------------------------------------------------------|
C-0-2-2-2b-0-0-0-2-2-2b-0-0-0-2-2-3-0-2-2-2b-0-0-0-2-2-2b-0-0-0-2-2-3--|

F---------------------------------------------------------|
C---------------------------------------------------------|
G---------------------------------------------------------|
C-0-2-2-2b-0-0-0-2-2-2b-0-0-0-2-2-3-0-2-2-2b-0-0-0-2-2-2--|

F------------------------------------------------|
C------------------------------------------------|
G------------------------------------------------|
C-0-2-2~-2-0-2-2-0-0-3-0-2-2~-2-0-2-2-0-0-2-2-3--|

F----------------------------|
C----------------------------|
G----------------------------|
C-0-2-2~-2-0-2-2-0-0-0-3-0~--|

F-------------------------------------------------|
C-------------------------------------------------|  X2
G-------------------------------------------------|
C-0-2-2~-2-0-2-2-0-0-0-3-0-2-2-2-0-0-0-2-2-2-0-0--|

Verses  (0:42, 1:34)
F----------------------------------|
C----------------------------------|  X3
G----------------------------------|
C-0-2-2-2-0-0-0-2-2-2-0-0-0-2-2-3--|

F--------------------------|
C--------------------------|
G--------------------------|
C-0-2-2-2-0-0-0-2-2-2-0-0--|

F----------------------------------------------------------------------|
C----------------------------------------------------------------------|  X4
G----------------------------------------------------------------------|
C-0-2-2-2b-0-0-0-2-2-2b-0-0-0-2-2-3-0-2-2-2b-0-0-0-2-2-2b-0-0-0-2-2-3--|

Chorus  (1:03, 1:55, 3:09)
F-----------------------------------------------------------------|
C-----------------------------------------------------------------|
G-------------------------------------3---3-5--5~-5---------------|
C-2--2~-2-2~-2-2-0-2-2-5--5~-5-5~-5-5---3-----------0~-0-0-0-0-0--|

F--------------------------------------------------------------------|
C--------------------------------------------------------------------|
G-------------------------------------------------------------3---3--|
C-3--3~-3-3-3~-2-2-2~-0-0-2--2~-2-2~-2-2-2-2-2-5--5~-5-5~-5-5---3----|

F---------------------------|
C---------------------------|
G-5--5~-5-------------------|
C---------0~-0-0-0-0-0--3~--|

(2:14)
F-----------------|
C-----------------|
G-----------------|
C-3--3~-3-3-3~-3--|

F---------------------------------------------------------------------|
C---------------------------------------------------------------------|
G---------------------------------------------------------------------|
C-0-2-2~-2-0-2-2-0-0-3-0-2-2~-2-0-2-2-0-0-2-2-3-0-2-2~-2-0-2-2-0-0-3--|

F----------------------------------|
C----------------------------------|
G----------------------------------|
C-0-2-2-2-0-0-0-2-2-2-0-0-0-2-2-3--|

Interlude  (2:27)
F--------------------------------------------------|
C--------------------------------------------------|
G--------------------------------------------------|
C-0-2-2~-2-0-2-2-0-0-3-3-0-2-2~-2-0-2-2-0-0-2-2-3--|

F--------------------------------------------------------|
C--------------------------------------------------------|
G--------------------------------------------------------|
C-0--2-2~-2-0--2-2--0-0--3-3--0--2-2~-2-0--0-2-2-2-3--3--|

F--------------------------------------------------|
C--------------------------------------------------|
G--------------------------------------------------|
C-0-2-2-2-0-0-2-2-2-0-3-3-0-2-2-2-0-0-2-2-2-0-0-3--|

F----------------------------------------------------------------------|
C----------------------------------------------------------------------|  X2
G----------------------------------------------------------------------|
C-0-2-2-2b-0-0-0-2-2-2b-0-0-0-2-2-3-0-2-2-2b-0-0-0-2-2-2b-0-0-0-2-2-3--|

Guitar Solo  (2:48)
F---------------------------------------------------------------------|
C---------------------------------------------------------------------|
G-------------------------------------3-3---3-5--5~-5-----------------|
C-2--2~-2-2~-2-2-2-2-0-5--5~-5-5~-5-5-----3-----------0~-0-0-0-0-0-0--|

F-----------------------------------------------|
C-----------------------------------------------|
G-----------------------------------------------|
C-3-0-3~-0-3--0-3--0--3--3--2--2~-2-2~-2-2-2-0--|

F-----------------------------------------------------------------------|
C-----------------------------------------------------------------------|
G----------------3---3-5--5~-5------------------------------------------|
C-5--5~-5-5~-5-5---3-----------0~-0-0-0-0-0-0-3-0-3--0-3~-0-3--3-3-3-3--|

(3:27)
F---------------------------------|
C---------------------------------|
G---------------------------------|
C-3--3-3-3-3-3-3-3-3-3-3-3-3-3-3--|

Outro  (3:30)
F------------------------------------------------|
C------------------------------------------------|
G------------------------------------------------|
C-0-2-2~-2-0-2-2-0-0-3-0-2-2~-2-0-2-2-0-0-2-2-3--|

F-----------------------------------------------------------------------|
C-----------------------------------------------------------------------|
G-----------------------------------------------------------------------|
C-0-2-2~-0-0-2-2-0-0-3-3-0-2-2~-2-0-2-2-0-0-2-2-3-0-2-2~-2-0-2-2-0-0-3--|

F--------------------------------------------------------------------------------|
C--------------------------------------------------------------------------------|
G--------------------------------------------------------------------------------|
C-0-2-2~-2-0-2-2-0-0-2-2-3-0-2-2~-2-0-2-2-0-0-3-0-2-2-2-0-0-0-2-2-2-0-0-0-2-2-3--|

2.FACELESS

Drop C


Intro
----------------|
----------------|
----------------|
3/5-3000100-3500


Verse
-----------------------|
-----------------------|
-----------------------|
5555533-3333311-3333355


Chorus
-----------------|
-----------------|
-----------------|
3/5-5/7-5-3-3113-|


Fill
-------------------------|
-------------------------|
-------------------------|
335333-335333-335-335333-|


Outro
------------|
------------|
------------|
33353-333313

3.CHANGES

Drop C tunning


Intro
----------------------|
----------------------|
----------------------|
55355-553555-333353333


Verse
-----------|
-----------|
-----------|
57553-57553


Chorus
---------------|
---------------|
---------------|
3535013-3535013


Fill
--------------------------------|
--------------------------------|
--------------------------------|
3-5-1-013-3-5-1-013-353-353-575-|


Outro
-----------------------------|
-----------------------------|
-----------------------------|
35351-35351-3-5-1-03-3-5-1-0-|

4.MAKE ME BELIEVE

Drop C Tunning


Intro
----------------------|
----------------------|
----------------------|
3-5-111333-3-5-111333-|

Verse
----------------------------|
----------------------------|
----------------------------|
3-555777555-3-3-555777555-3-|


Chorus
---------------------------------|
---------------------------------|
---------------------------------|
35-1113335553333-35-111333555333-|


Fill
--------------------------|
--------------------------|
--------------------------|
3-5-3-5-7-77-7-5-33577533-|

Outro
-
-      let it ring
-
3

5.I STAND ALONE

F--------------------------------------|
C--------------------------------------|
G--------------------------------------|
C-0~~~--------------------------3--5/--|

(0:11)
F-------------------------|
C-------------------------|  X2
G-------------------------|
C-0-0-0-----0-0-0----0-0--|

F----------------------------|
C----------------------------|
G----------------------------|
C-0-0-0----0-0-0----0-0-12/--|

Verses  (0:23, 0:57)
F-----------------------------------------------------------|
C-----------------------------------------------------------|
G-----------------------------------------------------------|
C-0---0--4-0-0~-0-4-0--6--6-6--0---0-4-0-0~-0-4-0--5/3-2-3--|

F----------------------------------------------|
C----------------------------------------------|
G----------------------------------------------|
C-0---0-4-0-0~-0-4-0-6---6-6---0---0-4-0-0~-0--|

F----------------------------------------------------------|
C----------------------------------------------------------|
G----------------------------------------------------------|
C-0---0-4-0-0~-0-4-0-6-6-6-6---0---0-4-0-0~-0-4-0-5/3-3-3--|

F-----------------------------------------------------|
C-----------------------------------------------------|
G-----------------------------------------------------|
C-0----0-7-0-0~-0-4-0-6-6-6-0---6~----------6-----6/--|

F-------------------------|
C-------------------------|  X2
G-------------------------|
C-0-0-0-----0-0-0----0-0--|

F----------------------------|
C----------------------------|
G----------------------------|
C-0-0-0----0-0-0----0-0-12/--|

F----------------------------|
C----------------------------|
G----------------------------|
C-0--0-4-0-0~-0-4-0-5/3-3-0--|

Pre-Chorus  (1:19)
F--------------------------------------------|
C--------------------------------------------|
G--------------------------------------------|
C-5--5~-5-5~-5-5-5\8--8--8~-8-8~-8-0-0-1--1--|

2nd Chorus  (1:25, 3:03)
F---------------------------------------------------------------|
C---------------------------------------------------------------|
G---------------------------------------------------------------|
C-0-0-0-------0-0-0-----0-0------0-0-0-------0-0-0-----0-0-0-0--|

F------------------------------------------------------|
C------------------------------------------------------|
G------------------------------------------------------|
C-5---5~-5-5~-5--5-5--5\8---8---8~-8-8~-8-8-8-8-8-8-8--|

F---------------------------------------------------------------|
C---------------------------------------------------------------|
G---------------------------------------------------------------|
C-0-0-0-------0-0-0-----0-0------0-0-0-------0-0-0-----0-0-0-0--|

F-------------------------------------|
C-------------------------------------|  X4
G-------12~-12-------13-13-----13-13--|
C-0-0-0--------0-0-0-------0-0--------|

Bridge  (1:59)   X3
F------------------------------------------------------------------------------------|
C------------------------------------------------------------------------------------|
G------------------------------------------------------------------------------------|
C-0-0~-0-0~-0-0-0-0-0--0-0~-0-0~-0-0-0--3-3~-3-3~-3-3-3-3--3-3~-3-3-0-3-3-3-0-1-1-1--|

F------------------------------------------------------------------------------------|
C------------------------------------------------------------------------------------|
G------------------------------------------------------------------------------------|
C-0-0~-0-0~-0-0-0--0--0~-0-0~--0-0--3--3~-3-3~-3-3-3-3-3--3--3~-3-3-0-3-3-3-0-1-1-1--|

Interlude  (2:46)
F----------------------------------------------------------------|
C----------------------------------------------------------------|
G----------------------------------------------------------------|
C-0----0--4-0-0~-4---0--6-6-6-6---0----0--4-0-0~-0-4-0--5/3-3-3--|

F-------------------------------------------------------|
C-------------------------------------------------------|
G-------------------------------------------------------|
C-0-----0--4-0-0~-0-4-0--6-6-6-0---6----------6-----6/--|

3rd Chorus  (2:58)
F-------------------------|
C-------------------------|  X2
G-------------------------|
C-0-0-0-----0-0-0----0-0--|

F----------------------------|
C----------------------------|
G----------------------------|
C-0-0-0----0-0-0----0-0-12/--|

(3:28)
F--------------------------------|
C--------------------------------|  X2
G--------------------------------|
C-0-0-0-7~-7-0-0-0-8--8-0-0-8-8--|

6.RE-ALIGN

Drop C Tunning

Intro
------------|
------------|
------------|
33-5-57-753-|


Verse
---------------|
---------------|
---------------|
3-357753-353-3-|

Chorus
-----------------|
-----------------|
-----------------|
35-575-135-575-3-|

Fill
------------------------------|
------------------------------|
------------------------------|
33-555333-11-555333-1-357-5-7-|

Outro
-------------------------------|
-------------------------------|
-------------------------------|
353-555-777-1-353-555777-1-3-5-|

7.I FUCKING HATE YOU

Drop C Tunning

Intro
---------------------|
---------------------|
---------------------|
33-33-33-33-55575577-|

Verse
----------------------------------|
----------------------------------|
----------------------------------|
03-03-03-03-03-03-03-03-333555333-|


Chorus
-------------------------|
-------------------------|
-------------------------|
3-75-333-555-33-55-33-55-|


Fill
------------------------------------------|
------------------------------------------|
------------------------------------------|
3-53-3-3-55-55-533-33-33-33-33-355-333555-|


Outro
----------------------|
----------------------|
----------------------|
33-5557755-33-5557755-|

8.RELEASING THE DEMONS

Drop C Tunning


Intro
-------------------|
-------------------|
-------------------|
335333-335333-33533


Verse
--------------------|
--------------------|
--------------------|
353375-353375-353133


Chorus
--------------------|
--------------------|
--------------------|
333555111-3355-11175

Fill
--------------------------------------|
--------------------------------------|
--------------------------------------|
333-3355333-333-33355553333-0-0-000-0-|

Outro
----
----
----
3533

9.DEAD AND BROKEN

Drop C

Intro
----------------------------|
----------------------------|
----------------------------|
3-----355533755-0-233323100-|


Verse
-----------------------|
-----------------------|
-----------------------|
0000-23333-00000-12222-|


Chorus
-------------------------|
-------------------------|
-------------------------|
1-3-5-03330-111321-43203-|

Fill
----------------------------|
----------------------------|
----------------------------|
000-3222213-000-44433323333-|


Outro
--------|
--------|
--------|
33333333

10.I AM

Drop C Tunning


Intro
-----------------------|
-----------------------|
-----------------------|
0000000-3-000000000-32-|

Verse
----------------------------------------|
----------------------------------------|
----------------------------------------|
111111111-4-111111111-43-22-34322-22253-|


Chorus
---------------------------|
---------------------------|
---------------------------|
00-232-00-231-0-00-2222322-|


Fill
-------------------------------------|
-------------------------------------|
-------------------------------------|
1111-333222-11113333-111111111133222-|


Outro
----------------------|
----------------------|
----------------------|
00000-33333000000-3311

11.THE AWAKENING

No Bass

12.SERENITY

tuning is standard eadg
intro/verse
g----------------------|
d-0--00---00033-66-3---|   repeat 3x pause then again till chorus
a----------------------|   listen to song or play along with it,cause there are several
e----------------------|   pauses.

chorus
g----------------------|
d-55-88-6-3------------|play this till "where do we go when we just dont know"
a----------------------|then play main verse.
e----------------------|


bridge part  of song the ahhhh yeah part in middle of song

g----------------------|
d-0--6--666666666666---| listen to song hold the 0,then the first 6 hold then 6 twelve times repeat
a----------------------| 3times then on the fourth time play softly,then drums only.play main verse
e----------------------| pretty much till end of song even on the outo chorus.
comments
We did not receive enough feedback on this tab! Please rate:
print report bad tab
1 2 3 4 5
1 comment total.
0 reply
aliceinchains42 wrote on April 28 2007, 11:51 am

good tab

I want to post or [tab]
guest
You may want to rate the tab now too:
select rating
Please do not post tabs as comments. Select "correction" instead!