Oops, an error
Loading. Please wait.

Faceless Tab

version 3
version 3

Album

Whole song

Interactive

4,866 views 12 this week
3 commentsread comments
1 2 3 4 5
excellent!
x 5
add to favorites
launch autoscroll
font size
0
reset
how to read this tab
guitar tuner
Tab Pro tools
  • play this tab
  • loop segment
  • change instrument
  • show fretboard
  • metronome
Autoscroll
slow
fast
+/-
esc
set tempo
stop
Contributor
Band- Godsmack
Song- Faceless
Tuning- Drop D

ntro Guitar 1:
     Part 1 x5:
E-----------------------|-----------------|
B-----------------------|-----------------|
G-----------------------|-----------------|
D-----------------------|-----------------|
A-------13-----13---13--|--3-1-0-1-0-1-3--|
D---0-0-13-0-0-13-0-13--|--3-1-0-1-0-1-3--|
         *      *    *

Guitar 2:
E-------------------------------------------------------------------|
B-(harm)------------------------------------------------------------|
G---3--7-7-7-7-7-7-7-7-7-7-7-7/13-13-13-13-13-13-13-13-13-13-13-13--|
D------x-x-x-x-x-x-x-x-x-x-x-x--x--x--x--x--x--x--x--x--x--x--x--x--|
A------5-5-5-5-5-5-5-5-5-5-5-5/11-11-11-11-11-11-11-11-11-11-11-11--|
D-------------------------------------------------------------------|

Then x2:
Both Guitars but Gtr 1 still has wah:
     Part 1 x3:               Then:
E-----------------------|------------------|
B-----------------------|------------------|
G-----------------------|------------------|
D-----------------------|------------------|
A---0-0-13-0-0-13-0-13--|---3-1-0-1-0-1-3--|
D---0-0-13-0-0-13-0-13--|---3-1-0-1-0-1-3--|


Verse x4:
    Part 1 x3:                       Then:
E--------------------------|---------------------------|
B--------------------------|---------------------------|
G--------------------------|---------------------------|
D--------------------------|---------------------------|
A--------------------------|------------------15---13--|
D---0--0-0-0--0--0-13--13--|--0-0-0--0--0--0--15-0-13--|
PM  .  . . .  .  .  *   *     . . .  .  .  .   *    *


Prechorus:
E--------------------------------------------------------------------------|
B--------------------------------------------------------------------------|
G--------------------------------------------------------------------------|
D---7-7-7-7-7-7-7-7-7-7-7-7-7-7-7-7-10-10-10-10-10-10-10-10\---------------|
A---5-5-5-5-5-5-5-5-5-5-5-5-5-5-5-5--8--8--8--8--8--8--8--8\-1-1-1-1-1-1-1-|
D---5-5-5-5-5-5-5-5-5-5-5-5-5-5-5-5--8--8--8--8--8--8--8--8\-1-1-1-1-1-1-1-|
                          * * *            *  *  *


Chorus:
E----------------------------------------------------------------------|
B----------------------------------------------------------------------|
G----------------------------------------------------------------------|
D---------------------------------------5--5-5--5-5--5-8-------8-8-8-8-|
A---0-0-13-0-0-13-0-13--0-0-13-0-0-13-0-5--5-5--5-5--5-8-8-8-8-8-8-8-8-|
D---0-0-13-0-0-13-0-13--0-0-13-0-0-13-0-5--5-5--5-5--5-8-8-8-8-8-8-8-8-|
PM                                                       . . .

E-----------------------------------------------------------------------|
B-----------------------------------------------------------------------|
G-----------------------------------------------------------------------|
D---------------------------------------5--5-5--5-5--5-8----------------|
A---0-0-13-0-0-13-0-13--0-0-13-0-0-13-0-5--5-5--5-5--5-8--3-1-0-1-0-1-3-|
D---0-0-13-0-0-13-0-13--0-0-13-0-0-13-0-5--5-5--5-5--5-8--3-1-0-1-0-1-3-|


Repeat Verse

Repeat Prechorus

Repeat Chorus x2 (on 2nd time, finish with an extra -3-1-0-1-0-1-3- on the low D and A strings


Interlude:
E-----------------------------------------------------------------------|
B----(harm)-------------------------------------------------------------|
G------3~--7-7-7-7-7-7-7-7-7-7-7-7/13-13-13-13-13-13-13-13-13-13-13-13--|
D----------x-x-x-x-x-x-x-x-x-x-x-x--x--x--x--x--x--x--x--x--x--x--x--x--|
A-0~-------5-5-5-5-5-5-5-5-5-5-5-5/11-11-11-11-11-11-11-11-11-11-11-11--|
D-0~--------------------------------------------------------------------|


Solo w/ wah:
E-----------------------------------------------------10-----------10--------|
B---13^---13^~~~~---10h13p10-----------------------10----10-13-10------------|
G----------------------------12^-----12-----12^------------------13---13-12^-|
D----------------------------------------------------------------------------|
A----------------------------------------------------------------------------|
D----------------------------------------------------------------------------|

E------------------------------------------------------------------------------------|
B------------------10------10-----10---------(T)-------------------------------------|
G---12p10--10-12^-----12^-----12^----12^\----10^-------10----------------------------|
D--------12-----------------------------------------12----12~~~~--------10--10-12^---|
A--------------------------------------------------------------------/12--12---------|
D------------------------------------------------------------------------------------|

E-------------------15^--13~~~~--10-------10~~----------10-----------------------13--13-----|
B-----------------------------------13------------13^------13-10----13------13-15--15---15^-|
G--------------------------------------10------------------------12^----/14-----------------|
D---12p10-12~~~~\---------------------------------------------------------------------------|
A-------------------------------------------------------------------------------------------|
D-------------------------------------------------------------------------------------------|

Play this during the end of the solo with another guitar:
E-------------------------------------------------------|
B-------------------------------------------------------|
G-------------------------------------------------------|
D---7--7-7-7-7-7-7-7--7--10-10-10-10-10-10-10-10-10-10--|
A---5--5-5-5-5-5-5-5--5---8--8--8--8--8--8--8--8--8--8--|
D---5--5-5-5-5-5-5-5--5---8--8--8--8--8--8--8--8--8--8--|


Repeat chorus x2

Outro:                 take this x2
  __________________________|__________________________
 |    Part 1 x3:                    Part 2:           |
E---------------------------|---------------------------|
B---------------------------|---------------------------|
G---------------------------|---------------------------|
D---------------------------|---------------------------|
A---------------------------|---------------------------|
D---0--0-0-0--0--0--13--13--|--0-0-0--0--0--0--15--13---|
PM  .  . . .  .  .  *   *     . . .  .  .  .   *    *

Then take part and repeat it 3x and finish with this:
E-------------------|
B-------------------|
G-------------------|
D-------------------|
A-------------------|
D---0--0-0-0--0--0--|
PM  .  . . .  .  .

ENJOY!!!
comments
print report bad tab
3 comments total.
0 reply
Ribica wrote on March 21 2007, 04:40 am

All hail Andrew Zara! *bows down*
Perfect tab, correct 100%, timing good, and no lyrics.
Exellent

0 reply
kevdawg wrote on July 27 2007, 07:24 pm

yea dawg. this tab was great, good tab. bravo

0 reply
law_firm wrote on June 27 2009, 02:50 pm

perfect

I want to post or [tab]
guest
You may want to rate the tab now too:
select rating
Please do not post tabs as comments. Select "correction" instead!