Oops, an error
Loading. Please wait.

Faceless Tab

version 4
version 4

Whole song

Interactive

405 views 1 this week
no commentswrite comment
1 2 3 4 5
please rate
add to favorites
launch autoscroll
font size
0
reset
how to read this tab
guitar tuner
Autoscroll
slow
fast
+/-
esc
set tempo
stop
Help us to improve Ultimate-Guitar.com Take our survey!
×
Author
Difficulty
Tuning
Andrew Zara 3,646
intermediate
D A D G B E
Gtr I (D A D G B E) - 'Tony Rombola'
Gtr II (D A D G B E) - 'Sully Erna'
Gtr III (D A D G B E) - 'Tony Rombola Lead'


 Intro
  Q=138
  D5  EbD5  EbD5Eb5 D5  EbD5  EbD5Eb5   D5      Eb5 D5      Eb5 D5  Eb5
 4/4
  Gtr I
  E E E E E E E E   E E E E E E E  E    E   E   E   E   E   E   E   E
|-----------------|-------------------|---------------------------------|
|-----------------|-------------------|---------------------------------|
|-----------------|-------------------|---------------------------------|
|-----8-----8---8-|-----8-----8----8--|---------8-----------8-------8---|
|-----6-----6---6-|-----6-----6----6--|---------6-----------6-------6---|
|-0-0---0-0---0---|-0-0---0-0---0-----|-0---0-------0---0-------0-------|
|
| Gtr II
| W                 H       Q   E  E    S S S S S S S S S S S S S S S S
|-----------------|-------------------|---------------------------------|
|-----------------|-------------------|---------------------------------|
|-----------------|---------------<3>-|-7-7-7-7-7-7-7-7-7-7-7-7-7-7-7-7-|
|-----------------|-------------------|-x-x-x-x-x-x-x-x-x-x-x-x-x-x-x-x-|
|-----------------|-------------------|-5-5-5-5-5-5-5-5-5-5-5-5-5-5-5-5-|
|-----------------|-------------------|---------------------------------|


  D5      Eb5 D5      Eb5 D5 Eb5
  E   E   E   E   E   E   E  E
|------------------------------|
|------------------------------|
|------------------------------|
|---------8-----------8------8-|
|---------6-----------6------6-|
|-0---0-------0---0-------0----|
|
| S S S S S S S S S S S S Q
|------------------------------|
|------------------------------|
|-7-7-7-7-7-7-7-7-7-7-7-7-7/---|
|-x-x-x-x-x-x-x-x-x-x-x-x-x----|
|-5-5-5-5-5-5-5-5-5-5-5-5-5/---|
|------------------------------|


  D5          Eb5   D5          Eb5   D5    Eb5
   E     E     E     E     E     E     E     E
|-------------------------------------------------|
|-------------------------------------------------|
|-------------------------------------------------|
|--------------8-----------------8-----------8----|
|--------------6-----------------6-----------6----|
|--0-----0-----------0-----0-----------0----------|
|
|  S  S  S  S  S  S  S  S  S  S  S  S  S  S  S  S
|-------------------------------------------------|
|-------------------------------------------------|
|-19-19-19-19-19-19-19-19-19-19-19-19-19-19-19-19-|
|--x--x--x--x--x--x--x--x--x--x--x--x--x--x--x--x-|
|-17-17-17-17-17-17-17-17-17-17-17-17-17-17-17-17-|
|-------------------------------------------------|


    F5EbD5EbD5EbF5  D5  EbD5  EbD5Eb5 D5  EbD5  EbD5Eb5
  Gtr I
  E E E E E E E E   E E E E E E E E   E E E E E E E E
|-----------------|-----------------|-----------------|
|-----------------|-----------------|-----------------|
|-----------------|-----------------|-----------------|
|-----------------|-----8-----8---8-|-----8-----8---8-|
|---3-1-0-1-0-1-3-|-0-0-6-0-0-6-0-6-|-0-0-6-0-0-6-0-6-|
|---3-1-0-1-0-1-3-|-0-0---0-0---0---|-0-0---0-0---0---|


  D5  EbD5  EbD5Eb5 D5F5EbD5EbD5EbF5  D5  EbD5  EbD5Eb5
  E E E E E E E E   E E E E E E E E   E E E E E E E E
|-----------------|-----------------|-----------------|
|-----------------|-----------------|-----------------|
|-----------------|-----------------|-----------------|
|-----8-----8---8-|-----------------|-----8-----8---8-|
|-0-0-6-0-0-6-0-6-|-0-3-1-0-1-0-1-3-|-0-0-6-0-0-6-0-6-|
|-0-0---0-0---0---|-0-3-1-0-1-0-1-3-|-0-0---0-0---0---|


  D5  EbD5  EbD5Eb5 D5  EbD5  EbD5Eb5   F5EbD5EbD5EbF5
  E E E E E E E E   E E E E E E E E   E E E E E E E E
|-----------------|-----------------|-----------------||
|-----------------|-----------------|-----------------||
|-----------------|-----------------|-----------------||
|-----8-----8---8-|-----8-----8---8-|-----------------||
|-0-0-6-0-0-6-0-6-|-0-0-6-0-0-6-0-6-|---3-1-0-1-0-1-3-||
|-0-0---0-0---0---|-0-0---0-0---0---|---3-1-0-1-0-1-3-||


 Verse
  D5          Eb5     D5          Eb5
  PM--------|         PM--------|
  E S S E E E E E E   S S E E E E E E E
|-------------------|-------------------|
|-------------------|-------------------|
|-------------------|-------------------|
|-------------------|-------------------|
|-0-0-0-0-0-0-6---6-|-0-0-0-0-0-0-6---6-|
|-0-0-0-0-0-0-------|-0-0-0-0-0-0-------|


  D5          Eb5     D5          F5 D5Eb5
  PM--------|
  E S S E E E E E E   S S E E E E  E E E
|-------------------|--------------------|
|-------------------|--------------------|
|-------------------|--------------------|
|-------------------|-------------10---8-|
|-0-0-0-0-0-0-6---6-|-0-0-0-0-0-0--8---6-|
|-0-0-0-0-0-0-------|-0-0-0-0-0-0----0---|


    $
    D5        Eb5       D5          Eb5
    PM--------|         PM--------|
    E S S E E E E E E   S S E E E E E E E
||--------------------|-------------------|
||o-------------------|-------------------|
||--------------------|-------------------|
||--------------------|-------------------|
||o-0-0-0-0-0-0-6---6-|-0-0-0-0-0-0-6---6-|
||--0-0-0-0-0-0-------|-0-0-0-0-0-0-------|


  D5          Eb5     D5          F5 D5Eb5
  PM--------|
  E S S E E E E E E   S S E E E E  E E E   3x
|-------------------|----------------------||
|-------------------|---------------------o||
|-------------------|----------------------||
|-------------------|-------------10---8---||
|-0-0-0-0-0-0-6---6-|-0-0-0-0-0-0--8---6--o||
|-0-0-0-0-0-0-------|-0-0-0-0-0-0----0-----||


 Pre Chorus
  D5/G                              F5/Bb                     Eb5
  Q.   E E E E E   +E  Q  Q  E Q     Q.    E  E  E  E  E    E E E E E E E E
|----------------|----------------|-----------------------|-----------------||
|----------------|----------------|-----------------------|-----------------||
|----------------|----------------|-----------------------|-----------------||
|-7----7-7-7-7-7-|-(7)-7--7--7-7--|-10----10-10-10-10-10\-|-----------------||
|-5----5-5-5-5-5-|-(5)-5--5--5-5--|--8-----8--8--8--8--8\-|---1-1-1-1-1-1-1-||
|-5----5-5-5-5-5-|-(5)-5--5--5-5--|--8-----8--8--8--8--8\-|---1-1-1-1-1-1-1-||


 Chorus
  D5  EbD5  EbD5Eb5 D5  EbD5  Eb5 G5                 Bb5
                                                             PM--|
  E E E E E E E E   E E E E E E E E   +E  E Q  E E E E   +E  E E E E E E E
|-----------------|-----------------|------------------|-------------------|
|-----------------|-----------------|------------------|-------------------|
|-----------------|-----------------|------------------|-------------------|
|-----8-----8---8-|-----8-----8---5-|-(5)-5-5--5-5-5-8-|-(8)-------8-8-8-8-|
|-0-0-6-0-0-6-0-6-|-0-0-6-0-0-6-0-5-|-(5)-5-5--5-5-5-8-|-(8)-8-8-8-8-8-8-8-|
|-0-0---0-0---0---|-0-0---0-0---0-5-|-(5)-5-5--5-5-5-8-|-(8)-8-8-8-8-8-8-8-|


                                                                To Coda
  D5  EbD5  EbD5Eb5 D5  EbD5  EbD5G5                 Bb5   F5EbD5EbD5EbF5
  E E E E E E E E   E E E E E E E E   +E  E Q  E E E E   E E E E E E E E
|-----------------|-----------------|------------------|-----------------||
|-----------------|-----------------|------------------|-----------------||
|-----------------|-----------------|------------------|-----------------||
|-----8-----8---8-|-----8-----8---5-|-(5)-5-5--5-5-5-8-|-----------------||
|-0-0-6-0-0-6-0-6-|-0-0-6-0-0-6-0-5-|-(5)-5-5--5-5-5-8-|---3-1-0-1-0-1-3-||
|-0-0---0-0---0---|-0-0---0-0---0-5-|-(5)-5-5--5-5-5-8-|---3-1-0-1-0-1-3-||


 Verse
  D5          Eb5     D5          Eb5
  PM--------|         PM--------|
  E S S E E E E E E   S S E E E E E E E
|-------------------|-------------------|
|-------------------|-------------------|
|-------------------|-------------------|
|-------------------|-------------------|
|-0-0-0-0-0-0-6---6-|-0-0-0-0-0-0-6---6-|
|-0-0-0-0-0-0-------|-0-0-0-0-0-0-------|


                         D.S. al Coda
  D5          Eb5     D5        F5 Eb5
  PM--------|                      PM|
                                 |-3-|
  E S S E E E E E E   S S E E E  Q Q Q
|-------------------|-------------------|
|-------------------|-------------------|
|-------------------|-------------------|
|-------------------|-----------10-8-8--|
|-0-0-0-0-0-0-6---6-|-0-0-0-0-0--8-6-6--|
|-0-0-0-0-0-0-------|-0-0-0-0-0---------|


  &
  D5  EbD5  EbD5Eb5 D5  EbD5  EbD5G5                 Bb5
                                                             PM--|
  E E E E E E E E   E E E E E E E E   +E  E Q  E E E E   +E  E E E E E E E
|-----------------|-----------------|------------------|-------------------|
|-----------------|-----------------|------------------|-------------------|
|-----------------|-----------------|------------------|-------------------|
|-----8-----8---8-|-----8-----8---5-|-(5)-5-5--5-5-5-8-|-(8)-------8-8-8-8-|
|-0-0-6-0-0-6-0-6-|-0-0-6-0-0-6-0-5-|-(5)-5-5--5-5-5-8-|-(8)-8-8-8-8-8-8-8-|
|-0-0---0-0---0---|-0-0---0-0---0-5-|-(5)-5-5--5-5-5-8-|-(8)-8-8-8-8-8-8-8-|


  D5  EbD5  EbD5Eb5 D5  EbD5  EbD5G5                 Bb5   F5EbD5EbD5EbF5
  E E E E E E E E   E E E E E E E E   +E  E Q  E E E E   E E E E E E E E
|-----------------|-----------------|------------------|-----------------||
|-----------------|-----------------|------------------|-----------------||
|-----------------|-----------------|------------------|-----------------||
|-----8-----8---8-|-----8-----8---5-|-(5)-5-5--5-5-5-8-|-----------------||
|-0-0-6-0-0-6-0-6-|-0-0-6-0-0-6-0-5-|-(5)-5-5--5-5-5-8-|---3-1-0-1-0-1-3-||
|-0-0---0-0---0---|-0-0---0-0---0-5-|-(5)-5-5--5-5-5-8-|---3-1-0-1-0-1-3-||


 Interlude
  D5
  W          +W           +W           +W
|----------|------------|------------|--------|
|----------|------------|------------|--------|
|----------|------------|------------|--------|
|----------|------------|------------|--------|
|-0--------|-(0)--------|-(0)--------|-(0)----|
|-0--------|-(0)--------|-(0)--------|-(0)----|


  D
  Gtr I
  PM-----------------------------------------------------------|
  E   E   E   E   E   E   E   E     E   E   E   E   E   E   E  E
|---------------------------------|------------------------------|
|---------------------------------|------------------------------|
|---------------------------------|------------------------------|
|---------------------------------|------------------------------|
|---------------------------------|------------------------------|
|-0---0---0---0---0---1---0---1---|-0---0---0---0---0---1---0--1-|
|
| Gtr II
| S S S S S S S S S S S S S S S S   S S S S S S S S S S S S Q
|---------------------------------|------------------------------|
|---------------------------------|------------------------------|
|-7-7-7-7-7-7-7-7-7-7-7-7-7-7-7-7-|-7-7-7-7-7-7-7-7-7-7-7-7-7/---|
|-x-x-x-x-x-x-x-x-x-x-x-x-x-x-x-x-|-x-x-x-x-x-x-x-x-x-x-x-x-x----|
|-5-5-5-5-5-5-5-5-5-5-5-5-5-5-5-5-|-5-5-5-5-5-5-5-5-5-5-5-5-5/---|
|---------------------------------|------------------------------|


   PM----------------------------------------|
   E     E     E     E     E     E     E     E     W
|----------------------------------------------|---------||
|----------------------------------------------|---------||
|----------------------------------------------|---------||
|----------------------------------------------|---------||
|----------------------------------------------|---------||
|--0-----0-----0-----0-----0-----1-----0-----1-|---------||
|
|  S  S  S  S  S  S  S  S  S  S  S  S  S  E.      +W
|----------------------------------------------|---------||
|----------------------------------------------|---------||
|-19-19-19-19-19-19-19-19-19-19-19-19-19-19----|-(19)----||
|--x--x--x--x--x--x--x--x--x--x--x--x--x--x----|---------||
|-17-17-17-17-17-17-17-17-17-17-17-17-17-17----|-(17)----||
|----------------------------------------------|---------||


 Guitar Solo
  D5      EbD5         EbD5Eb5 D5         Eb5   D5     EbD5Eb5
  Gtr I
   E    E E  E      E  E E E    E    E     E    E   E  E E  E
|----------------------------|--------------------------------|
|----------------------------|--------------------------------|
|----------------------------|--------------------------------|
|---------8------------8---8-|-------------8-----------8----8-|
|--0----0-6--0------0--6-0-6-|--0----0-----6----0---0--6-0--6-|
|--0----0----0------0----0---|--0----0----------0---0----0----|
|
| Gtr III
|                   ~~~~
|                               |---3---|
|  Q.        E     +H           E  E    E  Q       +Q.      E
|----------------------------|--------------------------------|
|-13b15-----13b15-(13)-------|-10h13p==10---------------------|
|----------------------------|------------12b13---(12)-----12-|
|----------------------------|--------------------------------|
|----------------------------|--------------------------------|
|----------------------------|--------------------------------|


  D5          Eb5   D5          Eb5    D5           Eb5
   E     E     E     E     E     E       E           E
|---------------------------------------------------------|
|---------------------------------------------------------|
|---------------------------------------------------------|
|--------------8-----------------8-------------------8----|
|--0-----0-----6-----0-----0-----6-------0-----------6----|
|--0-----0-----------0-----0-------------0----------------|
|
|                                        |---3----|
|  E     S  S  S  S  S  S  S  S  E      +S   +S   S  S  S
|----------10-------------10------------------------------|
|-------10----10-13-10------------------------------------|
|-12b14----------------13----13-12b13==(12)r(12)p10----10-|
|---------------------------------------------------12----|
|---------------------------------------------------------|
|---------------------------------------------------------|


  D5    F5       Eb5     D5       Eb5    D5EbF5
   E     E         E      E        E     E E E
|----------------------------------------------|
|----------------------------------------------|
|----------------------------------------------|
|----------------------------------------------|
|--0-----3---------1------0--------1-----0-1-3-|
|--0-----3---------1------0--------1-----0-1-3-|
|
|  E     S  S     +S   S  S     S  H
|----------------------------------------------|
|-------10------------10-------10--------------|
|-12b14----12b14-(12)----12b14----12b14\-------|
|----------------------------------------------|
|----------------------------------------------|
|----------------------------------------------|


  D5       EbD5     EbD5Eb5 D5     EbD5     EbD5   Eb5
   E     E E E   E  E E E     E  E E E   E  E   E  E
|-------------------------|-----------------------------|
|-------------------------|-----------------------------|
|-------------------------|-----------------------------|
|----------8--------8---8-|--------8--------8------8----|
|--0-----0-6-0---0--6-0-6-|---0--0-6-0---0--6---0--6----|
|--0-----0---0---0----0---|---0--0---0---0------0-------|
|
|  TP            TP           TP         TP
|  H            +H           +H         +Q     +E.    S
|-------------------------|-----------------------------|
|-------------------------|-----------------------------|
|-10b13========(10)-------|-(10)-------(10)r==(10)------|
|-------------------------|--------------------------12-|
|-------------------------|-----------------------------|
|-------------------------|-----------------------------|


  D5       Eb5  D5  Eb5    D5    Eb5
   E     E   E  E E   E     E     E
|-----------------------------------|
|-----------------------------------|
|-----------------------------------|
|------------8--------8-----------8-|
|--0-----0---6--0-0---6-----0-----6-|
|--0-----0------0-0---------0-------|
|
|     ~~~~~~~~~~
|  S  E.    +Q    E   S  S  S  S  E
|-----------------------------------|
|-----------------------------------|
|-10--------------------------------|
|----12----(12)---------10----10-12-|
|-------------------/12----12-------|
|-----------------------------------|


  D5       F5   Eb5  D5      Eb5D5Eb5   F5  D5/G
    E        E    E    E      E E   E   E   Q.            E E  E  E E
|-----------------------------------------|---------------------------|
|-----------------------------------------|---------------------------|
|-----------------------------------------|---------------------------|
|-----------------------------------------|-7-------------7-7--7--7-7-|
|---0--------3----1----0------1-0---1---3-|-5-------------5-5--5--5-5-|
|---0--------3----1----0------1-0---1---3-|-5-------------5-5--5--5-5-|
|
|                             ~~                               ~~~
|  +E       +E   +E   +S   S  Q    +E   E   E   E     +Q    E  Q.
|-----------------------------------------|----15b17-(15)-----13------|
|-----------------------------------------|---------------------------|
|-----------------------------------------|---------------------------|
|-(12)b15==(12)-(12)r(12)p10-12---(12)\---|---------------------------|
|-----------------------------------------|---------------------------|
|-----------------------------------------|---------------------------|


                             F5/Bb
  +E      E  Q  H              Q    E     E  E         E  E  E
|--------------------------|-----------------------------------|
|--------------------------|-----------------------------------|
|--------------------------|-----------------------------------|
|-(7)-----7--7--7----------|--10---10----10-10--------10-10-10-|
|-(5)-----5--5--5----------|---8----8-----8--8---------8--8--8-|
|-(5)-----5--5--5----------|---8----8-----8--8---------8--8--8-|
|
|            ~~
|  S   S  E  Q  Q  E  E       +Q    S  S  E  S     E.     Q
|-10--------10-------------|-------10--------------------------|
|-----13-------------13b15-|-(13)-----13-10-------13-----------|
|--------10----------------|----------------12b14--------------|
|--------------------------|-----------------------------------|
|--------------------------|-----------------------------------|
|--------------------------|-----------------------------------|


    E  E  E     E     E     E  E   E
|-------------------------------------||
|-------------------------------------||
|-------------------------------------||
|--10-10-10----10----10----10-10--10--||
|---8--8--8-----8-----8-----8--8---8--||
|---8--8--8-----8-----8-----8--8---8--||
|
|   E  E  S  S  S  S  Q.          +E
|-----------13----13------------------||
|-----13-15----15----15b18r======(15)-||
|-/14---------------------------------||
|-------------------------------------||
|-------------------------------------||
|-------------------------------------||


 Chorus
  D5   EbD5  EbD5Eb5 D5     EbD5  EbD5G5                 Bb5
                                                                 PM--|
   E E E E E E E E     E  E E E E E E E   +E  E Q  E E E E   +E  E E E E E E E
|------------------|--------------------|------------------|-------------------|
|------------------|--------------------|------------------|-------------------|
|------------------|--------------------|------------------|-------------------|
|------8-----8---8-|--------8-----8---5-|-(5)-5-5--5-5-5-8-|-(8)-------8-8-8-8-|
|--0-0-6-0-0-6-0-6-|---0--0-6-0-0-6-0-5-|-(5)-5-5--5-5-5-8-|-(8)-8-8-8-8-8-8-8-|
|--0-0---0-0---0---|---0--0---0-0---0-5-|-(5)-5-5--5-5-5-8-|-(8)-8-8-8-8-8-8-8-|
|
|                      >
|  ~~~~~~~~~~~~~~~~~~~~~~~
|  W                  +W                   W                  W
|------------------|--------------------|------------------|-------------------|
|-15---------------|-(15)---------------|------------------|-------------------|
|------------------|--------------------|------------------|-------------------|
|------------------|--------------------|------------------|-------------------|
|------------------|--------------------|------------------|-------------------|
|------------------|--------------------|------------------|-------------------|


  D5  EbD5  EbD5Eb5 D5  EbD5  EbD5G5                 Bb5   F5EbD5EbD5EbF5
  E E E E E E E E   E E E E E E E E   +E  E Q  E E E E   E E E E E E E E
|-----------------|-----------------|------------------|-----------------|
|-----------------|-----------------|------------------|-----------------|
|-----------------|-----------------|------------------|-----------------|
|-----8-----8---8-|-----8-----8---5-|-(5)-5-5--5-5-5-8-|-----------------|
|-0-0-6-0-0-6-0-6-|-0-0-6-0-0-6-0-5-|-(5)-5-5--5-5-5-8-|---3-1-0-1-0-1-3-|
|-0-0---0-0---0---|-0-0---0-0---0-5-|-(5)-5-5--5-5-5-8-|---3-1-0-1-0-1-3-|


  D5  EbD5  EbD5Eb5 D5  EbD5  EbD5G5                 Bb5
                                                             PM--|
  E E E E E E E E   E E E E E E E E   +E  E Q  E E E E   +E  E E E E E E E
|-----------------|-----------------|------------------|-------------------|
|-----------------|-----------------|------------------|-------------------|
|-----------------|-----------------|------------------|-------------------|
|-----8-----8---8-|-----8-----8---5-|-(5)-5-5--5-5-5-8-|-(8)-------8-8-8-8-|
|-0-0-6-0-0-6-0-6-|-0-0-6-0-0-6-0-5-|-(5)-5-5--5-5-5-8-|-(8)-8-8-8-8-8-8-8-|
|-0-0---0-0---0---|-0-0---0-0---0-5-|-(5)-5-5--5-5-5-8-|-(8)-8-8-8-8-8-8-8-|


  D5  EbD5  EbD5Eb5 D5  EbD5  EbD5G5                 Bb5   F5EbD5EbD5EbF5
  E E E E E E E E   E E E E E E E E   +E  E Q  E E E E   E E E E E E E E
|-----------------|-----------------|------------------|-----------------||
|-----------------|-----------------|------------------|-----------------||
|-----------------|-----------------|------------------|-----------------||
|-----8-----8---8-|-----8-----8---5-|-(5)-5-5--5-5-5-8-|-----------------||
|-0-0-6-0-0-6-0-6-|-0-0-6-0-0-6-0-5-|-(5)-5-5--5-5-5-8-|---3-1-0-1-0-1-3-||
|-0-0---0-0---0---|-0-0---0-0---0-5-|-(5)-5-5--5-5-5-8-|---3-1-0-1-0-1-3-||


 Outro
  D5          Eb5     D5          Eb5
  PM--------|         PM--------|
  E S S E E E E E E   S S E E E E E E E
|-------------------|-------------------|
|-------------------|-------------------|
|-------------------|-------------------|
|-------------------|-------------------|
|-0-0-0-0-0-0-6---6-|-0-0-0-0-0-0-6---6-|
|-0-0-0-0-0-0-------|-0-0-0-0-0-0-------|


  D5          Eb5     D5          F5  Eb5
  PM--------|         PM--------|
  E S S E E E E E E   S S E E E E E E E
|-------------------|-------------------|
|-------------------|-------------------|
|-------------------|-------------------|
|-------------------|-------------------|
|-0-0-0-0-0-0-6---6-|-0-0-0-0-0-0-8---6-|
|-0-0-0-0-0-0-------|-0-0-0-0-0-0-------|


  D5          Eb5     D5          Eb5
  PM--------|         PM--------|
  E S S E E E E E E   S S E E E E E E E
|-------------------|-------------------|
|-------------------|-------------------|
|-------------------|-------------------|
|-------------------|-------------------|
|-0-0-0-0-0-0-6---6-|-0-0-0-0-0-0-6---6-|
|-0-0-0-0-0-0-------|-0-0-0-0-0-0-------|


  D5          Eb5     D5
  PM--------|         PM--------|
  E S S E E E E E E   S S E E E E E Q
|-------------------|------------------*|
|-------------------|------------------*|
|-------------------|------------------*|
|-------------------|------------------*|
|-0-0-0-0-0-0-6---6-|-0-0-0-0-0-0------*|
|-0-0-0-0-0-0-------|-0-0-0-0-0-0------*|




--------------------------------------------------------------------------------


Duration Legend
---------------
W - whole; H - half; Q - quarter; E - 8th; S - 16th; T - 32nd; X - 64th; a - acciaccatura
+ - note tied to previous; . - note dotted; .. - note double dotted
Uncapitalized letters represent notes that are staccato (1/2 duration)
Irregular groupings are notated above the duration line
Duration letters will always appear directly above the note/fret number it represents the
duration for.  Duration letters with no fret number below them represent rests.  Multi-
bar rests are notated in the form Wxn, where n is the number of bars to rest for.  Low
melody durations appear below the staff

Tablature Legend
----------------
 h   - hammer-on
 p   - pull-off
 b   - bend
 pb  - pre-bend
 r   - bend release (if no number after the r, then release immediately)
 /\  - slide into or out of (from/to "nowhere")
 s   - legato slide
 S   - shift slide
 - natural harmonic
[n]  - artificial harmonic
n(n) - tapped harmonic
 ~   - vibrato
 tr  - trill
 T   - tap
 TP  - trem. picking
 PM  - palm muting
\n/  - tremolo bar dip; n = amount to dip
 \n  - tremolo bar down
 n/  - tremolo bar up
/n\  - tremolo bar inverted dip
 =   - hold bend; also acts as connecting device for hammers/pulls
 <> - volume swell (louder/softer)
 x   - on rhythm slash represents muted slash
 o   - on rhythm slash represents single note slash

Misc Legend
-----------
 |  - bar
||  - double bar
||o - repeat start
o|| - repeat end
*|  - double bar (ending)
 :  - bar (freetime)
 $  - Segno
 &  - Coda
Tempo markers -  = BPM(8/16=s8/s16), where s8 = swing 8ths, s16 = swing 16ths


Suggest correction
What's this?
You can suggest a correction to this tab. Community and Mods will review your correction and vote to approve or reject it.
comments
We did not receive enough feedback on this tab! Please rate:
print report bad tab
1 2 3 4 5
guest
You may want to rate the tab now too:
select rating
Please do not post tabs as comments. Select "correction" instead!