Oops, an error
Loading. Please wait.

Get Up Get Out Tab

version 1
version 1

Whole song

Interactive

3,040 views 6 this week
no commentswrite comment
1 2 3 4 5
please rate
add to favorites
launch autoscroll
font size
0
reset
how to read this tab
guitar tuner
Autoscroll
slow
fast
+/-
esc
set tempo
stop
Help us to improve Ultimate-Guitar.com Take our survey!
×
Band- Godsmack
Song- Get Up Get Out
Album- Godsmack

  D5                   Eb5                  E5                   F5
      0 0 0 x x x          1 1 1 x x x          2 2 2 x x x          3 3 3 x x x

          G5                   G#5                  C5                   D5V
      5 5 5 x x x          6 6 6 x x x          x 3 5 5 x x          x 5 7 7 x x

        Abadd11              Badd11               Dadd11              Fadd11XV
      6 6 6 7 x x         9 9 9 10 x x        12 12 12 13 x x      15 15 15 16 x x

           D                 Dmadd2                Dm/A                 F#5/G
      x 5 x 7 x x          x x x 7 6 0          x x 7 7 6 x          x x 5 6 7 x

Gtr I (D A D G B E) - 'Tony Rombola'
Gtr II (D A D G B E) - 'Tony Rombola'
Gtr III (D A D G B E) - 'Tony Rombola'

            Intro
           Q=108
  D5         N.C.
 4/4
             Gtrs I, II
  W           E  E S S S S +S  E S S S S S    E  E S S S S +S  E S S S S S
|----------|-------------------------------|--------------------------------|
|----------|-------------------------------|--------------------------------|
|----------|-------------------------------|--------------------------------|
|----------|-------------------------------|--------------------------------|
|----------|-------3h5-5-----------3h5-5-5-|-------3h5-5-----------3h5-5-5--|
|----------|--0--0-------0-(0)-0-0---------|--0--0-------0-(0)-0-0----------|
|
| Gtr III
| W          +W                              +W
|----------|-------------------------------|--------------------------------|
|----------|-------------------------------|--------------------------------|
|----------|-------------------------------|--------------------------------|
|-0--------|-(0)---------------------------|-(0)----------------------------|
|-0--------|-(0)---------------------------|-(0)----------------------------|
|-0--------|-(0)---------------------------|-(0)----------------------------|


  E E S S S S +S  E S S S S S   E E S S S S +S  E S S S S S
|-----------------------------|-----------------------------|
|-----------------------------|-----------------------------|
|-----------------------------|-----------------------------|
|-----------------------------|-----------------------------|
|-----3h5-5-----------3h5-5-5-|-----3h5-5-----------3h5-5-5-|
|-0-0-------0-(0)-0-0---------|-0-0-------0-(0)-0-0---------|


  E E S S S S +S  E S S S S S   E E S S S S +S  E S S S S S
|-----------------------------|-----------------------------|
|-----------------------------|-----------------------------|
|-----------------------------|-----------------------------|
|-----------------------------|-----------------------------|
|-----3h5-5-----------3h5-5-5-|-----3h5-5-----------3h5-5-5-|
|-0-0-------0-(0)-0-0---------|-0-0-------0-(0)-0-0---------|


                                    TPTP
  E E S S S S +S  E S S S S S   S S E E. S +Q   E E
|-----------------------------|---------------------||
|-----------------------------|---------------------||
|-----------------------------|----------7-(7)------||
|-----------------------------|---5-6-6--6-(6)------||
|-----3h5-5-----------3h5-5-5-|-5---5-5--5-(5)--5S0-||
|-0-0-------0-(0)-0-0---------|---------------------||


 Verse
  $
             D           N.C.
       ~~~
  E E +H     Q      E. S  S   S   S   S   S   S   S   S   S   S   S   S
|----------------|-------------------------------------------------------|
|----------------|-------------------------------------------------------|
|------------7\--|-/7\---------------------------------------------------|
|------------x---|--x----------------------------------------------------|
|-3-5-(5)----5\--|-/5\-0-------------------------------------------------|
|----------------|-------<3>-<3>-<3>-<3>-<3>-<3>-<3>-<3>-<3>-<3>-<3>-<3>-|


    ~~
  E Q.   +Q     S S S S
|-----------------------|
|-----------------------|
|-----------------------|
|-----------------------|
|-3-5----(5)\--/5-6-6-5-|
|-----------------------|


                                                             ~~~~~~
  +E   E  S   S   S   S   S   S   S   S   S   S   S   S    E E +H     Q
|--------------------------------------------------------|-----------------|
|--------------------------------------------------------|-----------------|
|--------------------------------------------------------|-----------------|
|--------------------------------------------------------|-----------------|
|-(5)\-0-------------------------------------------------|-3-5-(5)----5\---|
|--------<3>-<3>-<3>-<3>-<3>-<3>-<3>-<3>-<3>-<3>-<3>-<3>-|-----------------|


  E. S  S   S   S   S   S   S   S   S   S   S   S   S
|------------------------------------------------------|
|------------------------------------------------------|
|------------------------------------------------------|
|------------------------------------------------------|
|-5--0-------------------------------------------------|
|------<3>-<3>-<3>-<3>-<3>-<3>-<3>-<3>-<3>-<3>-<3>-<3>-|


             D     F5 E5    G5     F5 E5F5
    ~~~~~~
  E E +H     Q     E. S +E   E +S  E. E E
|----------------|-------------------------||
|----------------|-------------------------||
|------------7\--|-------------------------||
|------------x---|-3--2-(2)-/5-(5)-3--2-3--||
|-3-5-(5)----5\--|-3--2-(2)-/5-(5)-3--2-3--||
|----------------|-3--2-(2)-/5-(5)-3--2-3--||


 Pre Chorus
                                                              To Coda
  G5    G#5   G5            G#5      G5      G#5  G5            G#5
  E S S S S S S +S  S S S S  S S S   E S S S  S S S +S  S S S S  S S S
|----------------------------------|-----------------------------------||
|----------------------------------|-----------------------------------||
|----------------------------------|-----------------------------------||
|-5-5-5-6-6-6-5-(5)-5-5-5-5-/6-6-6-|-5-5-5-5-/6-6-5-(5)-5-5-5-5-/6-6-6-||
|-5-5-5-6-6-6-5-(5)-5-5-5-5-/6-6-6-|-5-5-5-5-/6-6-5-(5)-5-5-5-5-/6-6-6-||
|-5-5-5-6-6-6-5-(5)-5-5-5-5-/6-6-6-|-5-5-5-5-/6-6-5-(5)-5-5-5-5-/6-6-6-||


 Chorus
  D5  C5D5V  D5        C5D5V      D5  C5D5V  F5        Eb5
  E E S  S S S +S  E S S  S S S   E E S  S S S +S  E S S S E
|-------------------------------|----------------------------|
|-------------------------------|----------------------------|
|-----5-/7-7-----------5-/7-7-7-|-----5-/7-7-----------------|
|-----5-/7-7-----------5-/7-7-7-|-----5-/7-7-----------------|
|-0-0-3-/5-5-0-(0)-0-0-3-/5-5-5-|-0-0-3-/5-5-3-(3)-3-3-1-1-1-|
|-0-0--------0-(0)-0-0----------|-0-0--------3-(3)-3-3-1-1-1-|


                                         D.S. al Coda
  D5  C5D5V  D5        C5D5V      D5  C5D5V  F5
  E E S  S S S +S  E S S  S S S   E E S  S S S +E  E Q
|-------------------------------|-----------------------||
|-------------------------------|-----------------------||
|-----5-/7-7-----------5-/7-7-7-|-----5-/7-7------------||
|-----5-/7-7-----------5-/7-7-7-|-----5-/7-7-3-(3)------||
|-0-0-3-/5-5-0-(0)-0-0-3-/5-5-5-|-0-0-3-/5-5-3-(3)------||
|-0-0--------0-(0)-0-0----------|-0-0--------3-(3)------||


  &
  G5    G#5   G5            G#5      G5      G#5  G5            G#5
  E S S S S S S +S  S S S S  S S S   E S S S  S S S +S  S S S S  S S S
|----------------------------------|-----------------------------------||
|----------------------------------|-----------------------------------||
|----------------------------------|-----------------------------------||
|-5-5-5-6-6-6-5-(5)-5-5-5-5-/6-6-6-|-5-5-5-5-/6-6-5-(5)-5-5-5-5-/6-6-6-||
|-5-5-5-6-6-6-5-(5)-5-5-5-5-/6-6-6-|-5-5-5-5-/6-6-5-(5)-5-5-5-5-/6-6-6-||
|-5-5-5-6-6-6-5-(5)-5-5-5-5-/6-6-6-|-5-5-5-5-/6-6-5-(5)-5-5-5-5-/6-6-6-||


   Chorus
    D5  C5D5V  D5        C5D5V      D5  C5D5V  F5        Eb5
    E E S  S S S +S  E S S  S S S   E E S  S S S +S  E S S S E  3x
||--------------------------------|-----------------------------||
||o-------------------------------|----------------------------o||
||------5-/7-7-----------5-/7-7-7-|-----5-/7-7------------------||
||------5-/7-7-----------5-/7-7-7-|-----5-/7-7------------------||
||o-0-0-3-/5-5-0-(0)-0-0-3-/5-5-5-|-0-0-3-/5-5-3-(3)-3-3-1-1-1-o||
||--0-0--------0-(0)-0-0----------|-0-0--------3-(3)-3-3-1-1-1--||


  D5  C5D5V  D5        C5D5VF5
                                PM|   PM|   PM|   PM|
  E E S  S S S +S  E S S  S E   S S E S S E S S E S S E
|-----------------------------|-------------------------||
|-----------------------------|-------------------------||
|-----5-/7-7-----------5-/7---|-------------------------||
|-----5-/7-7-----------5-/7-3-|-----3-----3-----3-----3-||
|-0-0-3-/5-5-0-(0)-0-0-3-/5-3-|-----3-----3-----3-----3-||
|-0-0--------0-(0)-0-0------3-|-0-0-3-0-0-3-0-0-3-0-0-3-||


 Interlude
  D5         Dmadd2       N.C.
  Gtr I
  W           W           W          E. S +E  E +E  E E E
|----------|--0---------|----------|-0--------------------|
|----------|--6---------|-9--------|----6-(6)-------6-----|
|----------|--7---------|-7--------|----------7-(7)---7---|
|-0--------|--7---------|-6--------|--------------------0-|
|-0--------|------------|----------|----------------------|
|-0--------|------------|----------|----------------------|
|
| Gtr II
| W          +W           W          W
|----------|------------|----------|----------------------|
|----------|------------|----------|----------------------|
|----------|------------|----------|----------------------|
|-0--------|-(0)--------|----------|----------------------|
|-0--------|-(0)--------|----------|----------------------|
|-0--------|-(0)--------|----------|----------------------|


      ~~~
  Q  +Q   +E  E E E   +E  E E E +Q.   E
|-----------------4-|-(4)---------------|
|-------------------|-------0-----------|
|-7--(7)--(7)---7---|-----7-------------|
|-6--(6)--(6)-6-----|---------6-(6)-----|
|-------------------|-------------------|
|-------------------|-------------------|


  Dm/A     N.C.
  H    +E  E +S  E.   E. S +E   E  +E  E  Q
|----------0-(0)----|----------10-(10)---10--||
|-6----(6)-------6--|----9-(9)---------9-----||
|-7----(7)----------|-7----------------------||
|-7----(7)----------|------------------------||
|-------------------|------------------------||
|-------------------|------------------------||


   Guitar Solo
    Gtrs I, II
     S  S  E  S  S  S  S  +E   S  S  S  S  S  S
||----------------------------------------------|
||o-------------------10-(10)-13-13-13-13-12-12-|
||--------------------10-(10)-------------------|
||--12-12----10h12-12---------------------------|
||o-------12------------------------------------|
||----------------------------------------------|


   S  S  S  S  S  S  S  S  +S   E.  S  S  S  S
|----------------------------------------------|
|----10-------13-13-13-12-(12)-10--12p10----10-|
|------------------------------10--12p10----10-|
|-12-------------------------------------12----|
|-------12-12----------------------------------|
|----------------------------------------------|


   S S S S  S  S  S  S  +S  S  S  S  S  E S
|----------12-12-12-12-(12)---12-12-12-12---|
|-----------x--x--x--x---------x--x--x--x---|
|----------10-10-10-10-(10)---10-10-10-10---|
|----9-9-9------------------9-------------9-|
|-12----------------------------------------|
|-------------------------------------------|


 1.
   S  S  S  S  +S  S S  S  S  E S  S  S  S  S
|-12-12-12-12-(12)-----12-12-12---12-12-12-12--||
|--x--x--x--x-----------x--x--x----x--x--x--x-o||
|-10-10-10-10-(10)-----10-10-10---10-10-10-10--||
|------------------9-9----------9--------------||
|---------------------------------------------o||
|----------------------------------------------||


  2.
   S  S  S  S  +S  S S  S  S  E.  +Q
|-12-12-12-12-(12)-----12-12-12--(12)\--|
|--x--x--x--x-----------x--x--x---------|
|-10-10-10-10-(10)-----10-10-10--(10)\--|
|------------------9-9------------------|
|---------------------------------------|
|---------------------------------------|


  D5                         C5D5V  D5        C5D5V
                \1   |
  E S S +S  S E Q.   E   E E S  S S S +S  E S S  S S S
|----------------------|---------------------------------|
|----------------------|---------------------------------|
|---------------7----x-|-----5-/7-7-----------5-/7-7-7---|
|----------------------|-----5-/7-7-----------5-/7-7-7---|
|-0---0-(0)---0--------|-0-0-3-/5-5-0-(0)-0-0-3-/5-5-5---|
|-0---0-(0)---0--------|-0-0--------0-(0)-0-0------------|


  D5  C5D5V  D5        D5V      D5     C5D5V  D5        C5D5V
  Gtr I
  E E S  S S S +S  E S  E S S   S E.   Q         Q      Q
|-----------------------------|----------------------------------|
|-----------------------------|----------------------------------|
|-----5-/7-7-----------/7-x-7-|-7-7----7---------7------7--------|
|-----5-/7-7-----------/7-x-7-|-x-x----x---------x------x--------|
|-0-0-3-/5-5-0-(0)-0-0-/5-x-5-|-5-5----5---------5------5--------|
|-0-0--------0-(0)-0-0--------|----------------------------------|
|
| Gtr II
| E E S  S S S +S  E S  E S S   E    E S  S S S +S  E S S  S S S
|-----------------------------|----------------------------------|
|-----------------------------|----------------------------------|
|-----5-/7-7-----------/7-x-7-|--------5-/7-7-----------5-/7-7-7-|
|-----5-/7-7-----------/7-x-7-|--------5-/7-7-----------5-/7-7-7-|
|-0-0-3-/5-5-0-(0)-0-0-/5-x-5-|-0----0-3-/5-5-0-(0)-0-0-3-/5-5-5-|
|-0-0--------0-(0)-0-0--------|-0----0--------0-(0)-0-0----------|


  D5  C5D5V  D5        C5D5V
  Q   Q         Q      E    +E
|----------------------------------||
|-9---9---------9------9----(9)\---||
|-x---x---------x------x-----------||
|-6---6---------6------6----(6)\---||
|----------------------------------||
|----------------------------------||
|
| E E S  S S S +S  E S S  S  S   S
|----------------------------------||
|----------------------------------||
|-----5-/7-7-----------5-/7--7---7-||
|-----5-/7-7-----------5-/7--7---7-||
|-0-0-3-/5-5-0-(0)-0-0-3-/5--5---5-||
|-0-0--------0-(0)-0-0-------------||


 Bridge
  N.C.
  Gtrs I, II
   S   S   S   S   S   S   S  S H       S   S   S   S   S   S  E H
|------------------------------------|--------------------------------|
|------------------------------------|--------------------------------|
|------------------------------------|--------------------------------|
|------------------------------------|--------------------------------|
|------------------------------------|--------------------------------|
|-<3>-<3>-<3>-<3>-<3>-<3>-<3>--------|-<3>-<3>-<3>-<3>-<3>-<3>--------|


   S   S   S   S   S   S   S  S Q   S   S   S   S
|--------------------------------------------------|
|--------------------------------------------------|
|--------------------------------------------------|
|--------------------------------------------------|
|--------------------------------------------------|
|-<3>-<3>-<3>-<3>-<3>-<3>-<3>------<3>-<3>-<3>-<3>-|


                ~~~~~~~~~~~~~~
   E      +S   +S   +Q    +Q.    +E
|-------------------------------------||
|-------------------------------------||
|-13b14==(13)r(13)-(13)--(13)---(13)\-||
|-12b13==(12)r(12)-(12)--(12)---(12)\-||
|-------------------------------------||
|-------------------------------------||


   Chorus
    D5  C5D5V  D5        C5D5V      D5  C5D5V  F5        Eb5
    Gtrs I, II
    E E S  S S S +S  E S S  S S S   E E S  S S S +S  E S S S E
||--------------------------------|----------------------------|
||o-------------------------------|----------------------------|
||------5-/7-7-----------5-/7-7-7-|-----5-/7-7-----------------|
||------5-/7-7-----------5-/7-7-7-|-----5-/7-7-----------------|
||o-0-0-3-/5-5-0-(0)-0-0-3-/5-5-5-|-0-0-3-/5-5-3-(3)-3-3-1-1-1-|
||--0-0--------0-(0)-0-0----------|-0-0--------3-(3)-3-3-1-1-1-|


  D5  C5D5V  D5        C5D5V      D5  C5D5V  F5        Eb5
  E E S  S S S +S  E S S  S S S   E E S  S S S +S  E S S S E
|-------------------------------|-----------------------------||
|-------------------------------|----------------------------o||
|-----5-/7-7-----------5-/7-7-7-|-----5-/7-7------------------||
|-----5-/7-7-----------5-/7-7-7-|-----5-/7-7------------------||
|-0-0-3-/5-5-0-(0)-0-0-3-/5-5-5-|-0-0-3-/5-5-3-(3)-3-3-1-1-1-o||
|-0-0--------0-(0)-0-0----------|-0-0--------3-(3)-3-3-1-1-1--||


  D5  C5D5V  D5        C5D5V      D5  C5D5V  F5        Eb5
  E E S  S S S +S  E S S  S S S   E E S  S S S +S  E S S S E
|-------------------------------|----------------------------|
|-------------------------------|----------------------------|
|-----5-/7-7-----------5-/7-7-7-|-----5-/7-7-----------------|
|-----5-/7-7-----------5-/7-7-7-|-----5-/7-7-----------------|
|-0-0-3-/5-5-0-(0)-0-0-3-/5-5-5-|-0-0-3-/5-5-3-(3)-3-3-1-1-1-|
|-0-0--------0-(0)-0-0----------|-0-0--------3-(3)-3-3-1-1-1-|


  D5  C5D5V  D5        C5D5VF5  N.C.F5N.C.F5N.C.F5N.C.F5
                                PM|   PM|   PM|   PM|
  E E S  S S S +S  E S S  S E   S S E S S E S S E S S E
|-----------------------------|-------------------------|
|-----------------------------|-------------------------|
|-----5-/7-7-----------5-/7---|-------------------------|
|-----5-/7-7-----------5-/7-3-|-----3-----3-----3-----3-|
|-0-0-3-/5-5-0-(0)-0-0-3-/5-3-|-----3-----3-----3-----3-|
|-0-0--------0-(0)-0-0------3-|-0-0-3-0-0-3-0-0-3-0-0-3-|


  D5  C5D5V  D5        C5D5V      D5  C5D5V  F5        Eb5
  E E S  S S S +S  E S S  S S S   E E S  S S S +S  E S S S E
|-------------------------------|----------------------------|
|-------------------------------|----------------------------|
|-----5-/7-7-----------5-/7-7-7-|-----5-/7-7-----------------|
|-----5-/7-7-----------5-/7-7-7-|-----5-/7-7-----------------|
|-0-0-3-/5-5-0-(0)-0-0-3-/5-5-5-|-0-0-3-/5-5-3-(3)-3-3-1-1-1-|
|-0-0--------0-(0)-0-0----------|-0-0--------3-(3)-3-3-1-1-1-|


  D5  C5D5V  D5        C5D5V
  E E S  S S S +S  E S S  S S S
|--------------------------------||
|--------------------------------||
|-----5-/7-7-----------5-/7-7-7--||
|-----5-/7-7-----------5-/7-7-7--||
|-0-0-3-/5-5-0-(0)-0-0-3-/5-5-5--||
|-0-0--------0-(0)-0-0-----------||


 Outro
  Fadd11                    Abadd11
  Gtr I
  \4/   \4/   \4/   \4/     \4/   \4/   \4/   \4/
  E   E E   E E   E E   E   E   E E   E E   E E   E
|-------------------------|-------------------------|
|-------------------------|-------------------------|
|-4-----4-----4-----4-----|-7-----7-----7-----7-----|
|-3-----3-----3-----3-----|-6-----6-----6-----6-----|
|-------------------------|-------------------------|
|-----3-----3-----3-----3-|-----6-----6-----6-----6-|
|
| Gtr II
| W                         W
|-------------------------|-------------------------|
|-------------------------|-------------------------|
|-4-----------------------|-7-----------------------|
|-3-----------------------|-6-----------------------|
|-3-----------------------|-6-----------------------|
|-3-----------------------|-6-----------------------|


  Badd11                        Dadd11
   \4/    \4/    \4/    \4/      \4/     \4/     \4/     \4/
   E   E  E   E  E   E  E   E    E    E  E    E  E    E  E    E
|-----------------------------|---------------------------------|
|-----------------------------|---------------------------------|
|-10-----10-----10-----10-----|-13------13------13------13------|
|--9------9------9------9-----|-12------12------12------12------|
|-----------------------------|---------------------------------|
|------9------9------9------9-|------12------12------12------12-|
|
|  W                             W
|-----------------------------|---------------------------------|
|-----------------------------|---------------------------------|
|-10--------------------------|-13------------------------------|
|--9--------------------------|-12------------------------------|
|--9--------------------------|-12------------------------------|
|--9--------------------------|-12------------------------------|


  Fadd11XV
   \4/     \4/     \4/     \4/       \4/     \4/     \4/     \4/
   E    E  E    E  E    E  E    E    E    E  E    E  E    E  E    E
|---------------------------------|----------------------------------|
|---------------------------------|----------------------------------|
|-16------16------16------16------|-16------16------16------16-------|
|-15------15------15------15------|-15------15------15------15-------|
|---------------------------------|----------------------------------|
|------15------15------15------15-|------15------15------15------15\-|
|
|  Q       Q       H                 W
|---------------------------------|----------------------------------|
|---------------------------------|----------------------------------|
|-16\-----------------------------|----------------------------------|
|-15\-----------------------------|----------------------------------|
|-15\-----------------------------|----------------------------------|
|-15\-----------------------------|----------------------------------|


  N.C.
  E E S S S S +S  E S S S S S   +E  E Q  H
|-----------------------------|---------------*|
|-----------------------------|---------------*|
|-----------------------------|---------------*|
|-----------------------------|---------------*|
|-----3h5-5-----------3h5-5-5-|-(5)-----------*|
|-0-0-------0-(0)-0-0---------|---------------*|
|
| W                              W
|-----------------------------|---------------*|
|-----------------------------|---------------*|
|-----------------------------|---------------*|
|-----------------------------|---------------*|
|-----------------------------|---------------*|
|-----------------------------|---------------*|


Duration Legend
---------------
W - whole; H - half; Q - quarter; E - 8th; S - 16th; T - 32nd; X - 64th; a - acciaccatura
+ - note tied to previous; . - note dotted; .. - note double dotted
Uncapitalized letters represent notes that are staccato (1/2 duration)
Irregular groupings are notated above the duration line
Duration letters will always appear directly above the note/fret number it represents the
duration for.  Duration letters with no fret number below them represent rests.  Multi-
bar rests are notated in the form Wxn, where n is the number of bars to rest for.  Low
melody durations appear below the staff

Tablature Legend
----------------
 h   - hammer-on
 p   - pull-off
 b   - bend
 pb  - pre-bend
 r   - bend release (if no number after the r, then release immediately)
 /\  - slide into or out of (from/to "nowhere")
 s   - legato slide
 S   - shift slide
  - natural harmonic
[n]  - artificial harmonic
n(n) - tapped harmonic
 ~   - vibrato
 tr  - trill
 T   - tap
 TP  - trem. picking
 PM  - palm muting
\n/  - tremolo bar dip; n = amount to dip
 \n  - tremolo bar down
 n/  - tremolo bar up
/n\  - tremolo bar inverted dip
 =   - hold bend; also acts as connecting device for hammers/pulls
 <>  - volume swell (louder/softer)
 x   - on rhythm slash represents muted slash
 o   - on rhythm slash represents single note slash

Misc Legend
-----------
 |  - bar
||  - double bar
||o - repeat start
o|| - repeat end
*|  - double bar (ending)
 :  - bar (freetime)
 $  - Segno
 &  - Coda
Tempo markers -  = BPM(8/16=s8/s16), where s8 = swing 8ths, s16 = swing 16ths
Suggest correction
Give kudos to tab author, rate the tab!
1 2 3 4 5
comments
print report bad tab
guest
You may want to rate the tab now too:
select rating
Please do not post tabs as comments. Select "correction" instead!