Oops, an error
Loading. Please wait.

Good Day To Die bass

227 views 1 this week
no commentswrite comment
1 2 3 4 5
1 last vote to show rating
add to favorites
×
Save as Personal and add changes to this tab that will be seen only by you. Learn more ›
×
You can save this tab as Personal to edit and correct it or add notes. All changes will be seen only by you. Learn more »
launch autoscroll
font size
0
reset
guitar tuner
edit
Autoscroll
slow
fast
+/-
esc
set tempo
stop
-------------------------------------------------------------------------------
                             Good Day To Die - Godsmack
-------------------------------------------------------------------------------
Tabbed by: Andu Needle
E-mail: sulfur_in_my_lungs@yahoo.com

Intro:

G|-------------------------------------------------------------------|
D|-------------------------------------------------------------------|
A|-------------------------------------------------------------------|
D|-0~--00----0~--00-5-5-5--------------------------------------------|

G|-------------------------------------------------------------------|
D|-------------------------------------------------------------------|
A|-------------------------------------------------------------------|
D|-0~--00----0~--5-5-5-5---------------------------------------------|

Main riff:

G|-------------------------------------------------------------------|
D|-------------------------------------------------------------------|
A|-------------------------------------------------------------------|
D|-0-7p0-0-8p0-0-10p0-0-8p0-7~--0-7p0-0-8p0-0-10p0-0-8p0-7~----------|

G|-------------------------------------------------------------------|
D|-------------------------------------------------------------------|
A|-------------------------------------------------------------------|
D|-0-7p0-0-8p0-0-10p0-0-8p0-7~--00-5p0-0-5p0-0-8p0-0-8p0-888---------|

Verse:

G|-------------------------------------------------------------------|
D|-------------------------------------------------------------------|
A|-------------------------------------------------------------------|
D|-00--00-00--00--0000-----------------------------------------------|(x3)

G|-------------------------------------------------------------------|
D|-------------------------------------------------------------------|
A|-------------------------------------------------------------------|
D|-00--00-00--55--3333-----------------------------------------------|

Chorus:

G|-------------------------------------------------------------------|
D|-------------------------------------------------------------------|
A|-------------------------------------------------------------------|
D|-0-7p0-0-8p0-0-10p0-0-8p0-7~--0-7p0-0-8p0-0-10p0-0-8p0-7~----------|

G|-------------------------------------------------------------------|
D|-------------------------------------------------------------------|
A|-------------------------------------------------------------------|
D|-0-7p0-0-8p0-0-10p0-0-8p0-7~--00-5p0-0-5p0-0-8p0-0-8p0-888---------|

Verse 2 is the same as the first one! Though this one has an alternate ending:
The rhythm is tricky. It basically follows the voice.

G|-------------------------------------------------------------------|
D|-------------------------------------------------------------------|
A|-------------------------------------------------------------------|
D|-00--00-00--05~5~-3~3~3-3------------------------------------------|

Chorus 2 is the same as the first one!

Bridge:

G|-------------------------------------------------------------------|
D|-------------------------------------------------------------------|
A|----------------------------------------33333333-------------------|
D|-77777777(x2)-55555555(x2)-77777777(x2)----------55555555----------|

G|-------------------------------------------------------------------|
D|-------------------------------------------------------------------|
A|-------------------------------------------------------------------|
D|-33333333(x2)-2-2-2-2-22222222-------------------------------------|

Solo:

During the solo you play the second verse, the one with the alternate ending.

After solo you play an alternate intro:

G|-------------------------------------------------------------------|
D|-------------------------------------------------------------------|
A|-------------------------------------------------------------------|
D|-0~--00----0~--00-5p0-0-5p0-0-8p0-0-8p0-888------------------------|

The last chorus is the same as the others!
At the end of the 4th part of the chorus, you end with this:

G|-------------------------------------------------------------------|
D|-------------------------------------------------------------------|
A|-------------------------------------------------------------------|
D|-5-5-3-3-5p0-------------------------------------------------------|

The ending of the song is basically the verse.

            
            
Suggest correction
Creating personal tab
Creating personal tab
You can edit any tab online and save it as your Personal.

You can edit, replace or remove any tab part or add personal notes – all changes will be seen only by you.

Personal tabs can be accessed anytime from any device, even offline.
Learn more »
Give kudos to tab author, rate the tab!
1 2 3 4 5
comments
print report bad tab
guest
You may want to rate the tab now too:
select rating
Wanna post a correction for this tab? Suggest correction