Oops, an error
Loading. Please wait.

I Am Tab

version 2
version 2

Whole song

Interactive

2,467 views 1 this week
1 commentread comment
1 2 3 4 5
excellent!
x 6
add to favorites
launch autoscroll
font size
0
reset
how to read this tab
guitar tuner
Tab Pro tools
  • play this tab
  • loop segment
  • change instrument
  • show fretboard
  • metronome
×
Best way to learn
"I Am"
Autoscroll
slow
fast
+/-
esc
set tempo
stop
Contributor
Band- Godsmack
Song- I Am
Tuning- Drop D

Intro x4:
    Part 1:                      Part 2:
E-------------------------|---------------------------------|
B-------------------------|---------------------------------|
G---------------------8---|---------------------8--5--------|
D---------------------x---|---------------------x--x--------|
A---------------------6---|---------------------6--3--------|
D---0-0-0-0-0---0-0-0-----|---0-0-0-0-0---0-0-0-------------|
    . . . . .   . . .         . . . . .   . . .

Verse x4:
     Part 1:                     Part 2:
E--------------------------|-------------------------------|
B--------------------------|-------------------------------|
G--------------------------|-------------------------------|
D--------------------------|-----------------------L-------|
A---------------------13---|---------------------13\10-10--|
D---0-0-0-0-0---0-0-0-13---|---0-0-0-0-0---0-0-0-13\10-10--|
    . . . . .   . . .          . . . . .   . . .

Prechorus:
       Part 1 x3:                       Part 2:
E----------------------------------|-----------------------------------|
B----------------------------------|-----------------------------------|
G----------------------------------|-----------------------------------|
D----------------------------------|-----------------------------------|
A---5-5-5-5-5---5-5-5-----6-6-6-6--|--5-5-5-5-5-5-5-5-5/8-8-8-8-8-8-8--|
D---5-5-5-5-5---5-5-5-0-0-6-6-6-6--|--5-5-5-5-5-5-5-5-5/8-8-8-8-8-8-8--|


Chorus:
Guitar 1 x 4:
E------------------------------------|
B------------------------------------|
G-----2-3-2---2-3-2---2-3-2---2-3-2--|
D---0-------0-------0-------0--------|
A------------------------------------|
D------------------------------------|

Guitar 2:
  Part 1 x3:         Part 2:
E-----------------|----------------|
B---3--3--1-1--4--|--4--4--4-4--1--|
G-----------------|----------------|
D-----------------|----------------|
A-----------------|----------------|
D-----------------|----------------|

Repeat Intro but only 2x


Repeat Verse

Repeat Prechorus

Repeat Chorus x2

Bridge:
Guitar 1:
E------------------|
B----T-------------|
G---13----------13-|
D------------------|
A------------------|
D------------------|

Guitar 2 x2:
E---------------------------------|
B---------------------------------|
G---------------------------------|
D---------------------------------|
A-------------------------------6-|
D---0-0-0-0-300-0-0-0-300-0-300-6-|
PM  . . . . ... . . . ... . ...

Interlude:
E---------------------------------|-----------------------------------|
B---------------------------------|-----------------------------------|
G---------------------------------|-----------------------------------|
D---------------------------------|------------------------------L----|
A-------------------------------6-|-----------------------------6/8-8-|
D---0-0-0-0-300-0-0-0-300-0-300-6-|-0-0-0-0-300-0-0-0-300-0-300-6/8-8-|
PM  . . . . ... . . . ... . ...     . . . . ... . . . ... . ...

E---------------------------------|-------------------------------------|
B---------------------------------|-------------------------------------|
G---------------------------------|-------------------------------------|
D---------------------------------|-------------------------------------|
A-------------------------------6-|-------------------------13-13-13-13-|
D---0-0-0-0-300-0-0-0-300-0-300-6-|-0-0-0-0-300-0-0-0-300-0-13-13-13-13-|
PM  . . . . ... . . . ... . ...     . . . . ... . . . ... .

E---------------------------------|-----------------------------------|
B---------------------------------|-----------------------------------|
G---------------------------------|-----------------------------------|
D---------------------------------|------------------------------L----|
A-------------------------------6-|-----------------------------6/8-8-|
D---0-0-0-0-300-0-0-0-300-0-300-6-|-0-0-0-0-300-0-0-0-300-0-300-6/8-8-|
PM  . . . . ... . . . ... . ...     . . . . ... . . . ... . ...

::::x2::::
E---------------------------------|----------------------------------|
B---------------------------------|----------------------------------|
G---------------------------------|----------------------------------|
D---------------------------------|------------------L---------------|
A-------------------------------6-|-5---6---5---3---1/3--------------|
D---0-0-0-0-300-0-0-0-300-0-300-6-|-5---6---5---3---1/3--------------|
PM  . . . . ... . . . ... . ...


Chorus x2

Outro:
Guitar 1:
E---------------------------------|-----------------------------------|
B---------------------------------|-----------------------------------|
G---------------------------------|-----------------------------------|
D---------------------------------|------------------------------L----|
A-------------------------------6-|-----------------------------6/8-8-|
D---0-0-0-0-300-0-0-0-300-0-300-6-|-0-0-0-0-300-0-0-0-300-0-300-6/8-8-|
PM  . . . . ... . . . ... . ...     . . . . ... . . . ... . ...

E---------------------------------|----------------------------------------------|
B---------------------------------|----------------------------------------------|
G---------------------------------|----------------------------------------------|
D---------------------------------|----------------------------------------------|
A-------------------------------6-|-------------------------13-13-13-13-13-13-13-|
D---0-0-0-0-300-0-0-0-300-0-300-6-|-0-0-0-0-300-0-0-0-300-0-13-13-13-13-13-13-13-|
PM  . . . . ... . . . ... . ...     . . . . ... . . . ... .

Guitar 2 outro:
E---------------------------------|------------------------------|
B-------------------------------4-|----------------------------r-|
G---------------------------------|------------------------------|
D---------------------------------|------------------------------|
A---------------------------------|------------------------------|
D---------------------------------|------------------------------|

E---------------------------------|-----------------------------|
B-------------------------------4-|---------------4-4-4-4-4-4-4-|
G---------------------------------|-----------------------------|
D---------------------------------|-----------------------------|
A---------------------------------|-----------------------------|
D---------------------------------|-----------------------------|

ENJOY!!!!
comments
print report bad tab
1 comment total.
0 reply
Eaglestalon101 wrote on January 19 2009, 11:51 pm

It all looks good, played it and seems to sound good...The only thing is about the intro, the notes are right, it's just that the 8 fret on the third string needs to bend to get the right sound....good job btw

I want to post or [tab]
guest
You may want to rate the tab now too:
select rating
Please do not post tabs as comments. Select "correction" instead!