Oops, an error
Loading. Please wait.

Keep Away bass

version 2
version 2

Whole song

2,548 views 1 this week
2 commentsread comments
1 2 3 4 5
x 4
add to favorites
×
Save as Personal and add changes to this tab that will be seen only by you. Learn more ›
×
You can save this tab as Personal to edit and correct it or add notes. All changes will be seen only by you. Learn more »
launch autoscroll
font size
0
reset
guitar tuner
backing track
0:00
0:00
edit
Autoscroll
slow
fast
+/-
esc
set tempo
stop
Author
Difficulty
------------------------------------------------------------------------------
                          Keep Away - Godsmack
		       The Other Side
-------------------------------------------------------------------------------

Tabbed By :  Tim Curran
e-mail:  pm9650@yahoo.com

Tuning: 5 string Low B

Here are the parts, if I tab'd it start to finish it would be a mile long. Just learn the
pieces and you'll know how they fit together. As with any tab, play along with the
song to get the timing down. Haven't tried this on a tuned down 4 string but I
suppose it would work...

Intro:
G|---------------------------------------------------------------------------------|
D|----------------------------5/12-12-12-12--12--10h12--12-12--10h12--12\p---------|
A|--3h5-5-5--5-5--5-5--5-5---------------------------------------------------------|
E|---------------------------------------------------------------------------------|
B|---------------------------------------------------------------------------------|

Main Bass Line:
G|------------------------------------------------------------------|
D|------------------------------------------------------------------|
A|------------------------------------------------------------------|
E|-------------1-1--1--1-1h3--3-3--3-3-4-4-4--1---------------------|
B|-2--2--2-2--------------------------------------------------------|

Second Bass Line:
G|--------------------------------------------------------------|
D|--------------------------------------------------------------|
A|-------5--5-5-3-3-3---3---------------1-1-1--3----------------|
E|---3/5---------------------5-5-5--5--5------------------------|
B|-2------------------------------------------------------------|

Bridge:
G|-------------------------------------|------------------------------------|
D|-------------------------------------|------------------------------------|
A|-----------------------5---------5---|------------------------------------|
E|-----------------------------3/5-----|------------------------------------|
B|-2-----2-----2-----2-2---2-----------|-----2-2-2---2-2-2(repeat 4x)-------|

G|---------------------------------------------------------------|
D|---------------------------------------------------------------|
A|--5-5-5-5---7-7-7-7--7-7-7-7---8-8-8-8---7-7-7-7---------------|
E|-----------------------------------------------------8-8-8-8---|
B|---------------------------------------------------------------|

Occasionally an open B is thrown in:
G|-----------------------------------------------------------------|
D|-----------------------------------------------------------------|
A|--5-5-5-5---7-7-7-7---------------8-8-8-8---7-7-7-7--------------|
E|-------------------------------------------------------8-8-8-8---|
B|------------------------0----------------------------------------|

And finally, this leads back to the Main Base Line:
G|------------------------------------------------------------------------------|
D|------------------------------------------------------------------------------|
A|--5-5-5-5---7-7-7-7--7-7-7-7---8-8-8-8---8-8--10-10-10-10-10-10-10-10---------|
E|------------------------------------------------------------------------------|
B|------------------------------------------------------------------------------|


| /  slide up
| \  slide down
| h  hammer-on
| p  pull-off
=============================================================

            
            
Suggest correction
Creating personal tab
Creating personal tab
You can edit any tab online and save it as your Personal.

You can edit, replace or remove any tab part or add personal notes – all changes will be seen only by you.

Personal tabs can be accessed anytime from any device, even offline.
Learn more »
comments
print report bad tab
2 comments total.
0 reply
Fender6 628 Aug 05, 2007 12:42 PM

its better that version 1, but still not that good.

0 reply
tcurran5 31 Aug 14, 2007 04:48 PM

As I noted, this goes with "The Other Side" acoustic version. People need to start reading a little better before they assume they have a clue. - It's accurate

guest
You may want to rate the tab now too:
select rating
Wanna post a correction for this tab? Suggest correction