Oops, an error
Loading. Please wait.

Keep Away Bass Tab

version 5
version 5

Whole song

16 views 9 this week
no commentswrite comment
1 2 3 4 5
3 more votes to show rating
add to favorites
launch autoscroll
font size
0
reset
guitar tuner
Autoscroll
slow
fast
+/-
esc
set tempo
stop
Help us to improve Ultimate-Guitar.com Take our survey!
×
Author
Difficulty
Tuning
intermediate
D A D G B E
************************************
Title: Keep Away
Artist: Godsmack
Album: Godsmack
bpm = 99
4/4 Time Signature
************************************

[Rest]
G|------------------------------------------------|
D|o----------------------------------------------o|
A|o----------------------------------------------o| x4
D|------------------------------------------------|

[Verse]
 *let ring--------------------*
G|------------------------------------------------|------------------------------------------------|
D|o-----------------------------------------------|-----------------------------------------------o|
A|o-----------------------------------------------|-----------------------------------------------o| x4
D|-0--------------0-----------0h3--3--3-----3-----|-3--5--5--5-----5-----5--5--5h6--6--6-----3-----|

G|------------------------------------------------|------------------------------------------------|
D|o-----------------------------------------------|-----------------------------------------------o|
A|o-----------------------------------------------|-----------------------------------------------o| x6
D|-0--------------0-----------0h3--3--3-----3-----|-3--5--5--5-----5-----5--5--5h6--6--6-----3-----|

G|------------------------------------------------|------------------------------------------------|
D|------------------------------------------------|------------------------------------------------|
A|------------------------------------------------|------------------------------------------------|
D|-0-----0--0--0--0-----------0h3--3--3-----3-----|-3--5--5--5-----5-----5--5--5h6--6--6-----3-----|

G|------------------------------------------------|------------------------------------------------|
D|------------------------------------------------|------------------------------------------------|
A|------------------------------------------------|------------------------------------------------|
D|-0--------------0-----------0h3--3--3-----3-----|-3--5--5--5-----5-----5--5--5h6--6--6--6--3-----|

[Chorus]
G|------------------------------------------------|------------------------------------------------|
D|------------------------------------------------|------------------------------------------------|
A|-------------5-----5--5--5h3--3--3-----3--0h3---|-3-----0-----0-----------0h1--1--1-----1-----1--|
D|--0-----5h7-------------------------------------|------------------------------------------------|

G|------------------------------------------------|------------------------------------------------|
D|------------------------------------------------|------------------------------------------------|
A|-------------5-----5--5--5h3--3--3-----3--0h3---|-3-----0-----0----------------------------------|
D|--0-----5h7-------------------------------------|-------------------------17\----------9\--------|

[Verse]
   *let ring------------------*
G|------------------------------------------------|------------------------------------------------|
D|o-----------------------------------------------|-----------------------------------------------o|
A|o-----------------------------------------------|-----------------------------------------------o| x2
D|-0--------------0-----------0h3--3--3-----3-----|-3--5--5--5-----5-----5--5--5h6--6--6-----3-----|

G|------------------------------------------------|------------------------------------------------|
D|o-----------------------------------------------|-----------------------------------------------o|
A|o-----------------------------------------------|-----------------------------------------------o| x4
D|-0--------------0-----------0h3--3--3-----3-----|-3--5--5--5-----5-----5--5--5h6--6--6-----3-----|

G|------------------------------------------------|------------------------------------------------|
D|------------------------------------------------|------------------------------------------------|
A|------------------------------------------------|------------------------------------------------|
D|-0-----0--0--0--0-----------0h3--3--3-----3-----|-3--5--5--5-----5-----5--5--5h6--6--6-----3-----|

G|------------------------------------------------|------------------------------------------------|
D|o-----------------------------------------------|-----------------------------------------------o|
A|o-----------------------------------------------|-----------------------------------------------o| x2
D|-0--------------0-----------0h3--3--3-----3-----|-3--5--5--5-----5-----5--5--5h6--6--6-----3-----|

G|------------------------------------------------|------------------------------------------------|
D|------------------------------------------------|------------------------------------------------|
A|------------------------------------------------|------------------------------------------------|
D|-0--------------0-----------0h3--3--3-----3-----|-3--5--5--5-----5-----5--5--5h6--6--6--6--3-----|

[Chorus]
G||-----------------------------------------------|------------------------------------------------|
D||o----------------------------------------------|-----------------------------------------------o|
A||o------------5-----5--5--5h3--3--3-----3--0h3--|-3-----0-----0-----------0h1--1--1-----1-----1-o| x3
D||-0-----5h7-------------------------------------|------------------------------------------------|

G|------------------------------------------------|------------------------------------------------|
D|------------------------------------------------|------------------------------------------------|
A|-------------5-----5--5--5h3--3--3-----3--0h-3--|-3-----0-----0-----------0h1--1--1-----3--------|
D|-0-----5h7--------------------------------------|---------------------------------------------0--|

[Bridge]
 *let ring----------------------------------------*
G|------------------------------------------------|
D|o----------------------------------------------o|
A|o----------------------------------------------o| x2
D|-(0)--------------------------------------------|

 *let ring----------------------------------------*
G|------------------------------------------------|
D|------------------------------------------------|
A|------------------------------------------------|
D|--0---------------------------------------------|

 *let ring----------------------------------------*
G|------------------------------------------------|
D|------------------------------------------------|
A|------------------------------------------------|
D|-(0)--------------------------------------------|

G|------------------------------------------------|
D|o----------------------------------------------o|
A|o----------------------------------------------o| x4
D|-0--0--0--0--------0--0--0--0-------------------|

[Chorus 2]
G|------------------------------------------------|------------------------------------------------|
D|------------------------------------------------|------------------------------------------------|
A|-5--5--5--5--------7--7--7--7-----7--7--7--7--7-|-7/8--8--8-------7--7--7--7-----7--3--3--3--3---|
D|------------------------------------------------|------------------------------------------------|

G|------------------------------------------------|------------------------------------------------|
D|------------------------------------------------|------------------------------------------------|
A|-5--5--5--5--------7--7--7--7-----7--7--7--7--7-|-7/8--8--8-------7--7--7--7-----7--3-----3------|
D|------------------------------------------------|------------------------------------------------|

G|------------------------------------------------|------------------------------------------------|
D|------------------------------------------------|------------------------------------------------|
A|-5--5--5--5--------7--7--7--7-----7-------------|-7/8--8--8-------7--7--7--7-----7--3--3--3--3---|
D|-------------------------------------0--0--0----|------------------------------------------------|

G|------------------------------------------------|------------------------------------------------|
D|o-----------------------------------------------|-----------------------------------------------o|
A|o5--5--5--5--------7--7--7--7-----7-------------|-7/8--8--8-------7--7--7--7-----7--------------o| x2
D|-------------------------------------0--0--0----|-----------------------------------0--0--0------|

G|------------------------------------------------|------------------------------------------------|
D|------------------------------------------------|------------------------------------------------|
A|-5--5--5--5--------7--7--7--7-----7-------------|-7/8--8--8--8--8--8--8--8/10--10-10-10-10-10-10-|
D|-------------------------------------0--0--0----|------------------------------------------------|

[Verse]
 *let ring------------------*
G|------------------------------------------------|------------------------------------------------|
D|o-----------------------------------------------|-----------------------------------------------o|
A|o-----------------------------------------------|-----------------------------------------------o| x3
D|-0--------------0-----------0h3--3--3-----3-----|-3--5--5--5-----5-----5--5--5h6--6--6-----3-----|

 *let ring-------------------*
G|------------------------------------------------|------------------------------------------------|
D|------------------------------------------------|------------------------------------------------|
A|------------------------------------------------|------------------------------------------------|
D|-0--------------0-----------0h3--3--3-----3-----|-3--5--5--5--5--5--5--5--5--5h6--6--6-----3-----|

G|------------------------------------------------|------------------------------------------------|
D|o-----------------------------------------------|-----------------------------------------------o|
A|o-----------------------------------------------|-----------------------------------------------o| x3
D|-0--------------0-----------0h3--3--3-----3-----|-3--5--5--5-----5-----5--5--5h6--6--6-----3-----|

G|------------------------------------------------|------------------------------------------------|
D|------------------------------------------------|------------------------------------------------|
A|------------------------------------------------|------------------------------------------------|
D|-0--------------0-----------0h3--3--3-----3-----|-3--5--5--5-----5-----5--5--5h6--6--6--6--3-----|

[Chorus 1 variation]
G|------------------------------------------------|------------------------------------------------|
D|o-----------------------------------------------|------------------------------------------------|
A|o------------5-----5--5--5h3--3--3-----3--3--3--|-3--3--0-----0-----------0h1--1--1-----1-----1--|
D|-0-----5h7--------------------------------------|------------------------------------------------|
                                                                                                     x3
G|------------------------------------------------|------------------------------------------------|
D|------------------------------------------------|-----------------------------------------------o|
A|-------------5-----5--5--5h3--3--3-----3--0h3---|-3-----0-----0-----------0h1--1--1-----1-----1-o|
D|-0-----5h7--------------------------------------|------------------------------------------------|

G|------------------------------------------------|------------------------------------------------|
D|------------------------------------------------|------------------------------------------------|
A|-------------5-----5--5--5h3--3--3-----3--3--3--|-3--3--0-----0-----------0h1--1--1-----1-----1--|
D|-0-----5h7--------------------------------------|------------------------------------------------|

G|------------------------------------------------|------------------------------------------------|
D|------------------------------------------------|------------------------------------------------|
A|-------------5-----5--5--5h3--3--3-----3--0h3---|-3-----0-----0-----------0h1--1--1-----3--------|
D|-0-----5h7--------------------------------------|---------------------------------------------0--|

 *let ring----------------------------------------*
G|------------------------------------------------|
D|o----------------------------------------------o| 
A|o----------------------------------------------o| x6
D|-(0)--------------------------------------------|

************************************
Legend
h - hammer on
/ - slide up
\ - slide down
(g) - ghost note
************************************
Suggest correction
Give kudos to tab author, rate the tab!
1 2 3 4 5
comments
print report bad tab
guest
You may want to rate the tab now too:
select rating
Wanna post a correction for this tab? Suggest correction