Oops, an error
Loading. Please wait.

Keep Away tab

version 5
version 5
3,464 views 1 this week
2 commentsread comments
1 2 3 4 5
2 more votes to show rating
add to favorites
×
Save as Personal and add changes to this tab that will be seen only by you. Learn more ›
×
You can save this tab as Personal to edit and correct it or add notes. All changes will be seen only by you. Learn more »
launch autoscroll
font size
0
reset
how to read this tab
guitar tuner
backing track
0:00
0:00
edit
Autoscroll
slow
fast
+/-
esc
set tempo
stop
Author
h   hammer-on
/   slide up
\   slide down
p   pull-off
x   mute note
->  hold note
^   bend up
~   vibrato or wammy
intro
|---------------------------------|
|---------------------------------|
|--7-77-77-77-7777----------------|
|--x-xx-xx-xx-xxxx----------------|
|--5-55-55-55-5555----------------|
|---------------------------------|x4

|--------------------------------------------|
|-----3--------------------------------------|
|-----2--------------------------------------|
|-0-0-0---------3-3-3-3-3/5-5-5-5/6-6-6-3----|
|-0-0-0--0-0--0h3-3-3-3-3/5-5-5-5/6-6-6-3----|
|-0-0-0--0-0--0h3-3-3-3-3/5-5-5-5/6-6-6-3----|x4

verse
|--------------------------------------------|
|---3----------------------------------------|
|---2----------------------------------------|
|-0-0--0h3-3-3-3-xx-5-5--5/6-6-6--3----------|
|-0-0--0h3-3-3-3-xx-5-5--5/6-6-6--3----------|
|-0-0--0h3-3-3-3-xx-5-5--5/6-6-6--3----------|x8

|--------------------------------------------|
|--------------------------------------------|
|-7-7-7\5-5-5------2-2--3-3--3-3-3-----------|
|-7-7-7\5-5-5------2-2--3-3--3-3-3-----------|
|-5-5-5\3-3-3--3p0-0-0--1-1--1-1-1-----------|
|--------------------------------------------|x1

|----------------------|
|----------------------|
|----------------------|
|-7-7-7\5-5-5----------|
|-7-7-7\5-5-5----------|
|-5-5-5\3-3-3--3p0--8\-|x1

|--------------------------------------------|
|-----3--------------------------------------|
|-----2--------------------------------------|
|-0-0-0-----3-3-3-3-xx-5-5--5/6-6-6-6-3------|
|-0-0-0-0-0h3-3-3-3-xx-5-5--5/6-6-6-6-3------|
|-0-0-0-0-0h3-3-3-3-xx-5-5--5/6-6-6-6-3------|x2

|--------------------------------------------|
|---3----------------------------------------|
|---2----------------------------------------|
|-0-0--0h3-3-3-3-xx-5-5--5/6-6-6--3----------|
|-0-0--0h3-3-3-3-xx-5-5--5/6-6-6--3----------|
|-0-0--0h3-3-3-3-xx-5-5--5/6-6-6--3----------|x8

|--------------------------------------------|
|--------------------------------------------|
|-7-7-7\5-5-5------2-2--3-3--3-3-3-----------|
|-7-7-7\5-5-5------2-2--3-3--3-3-3-----------|
|-5-5-5\3-3-3--3p0-0-0--1-1--1-1-1-----------|
|--------------------------------------------|x4

|-------|
|-3-->--|
|-2-->--|
|-0-->--|
|-0-->--|
|-0-->--|x2

|---------------------|
|---------------------|
|---------------------|
|-7-7-7-7--7--6-6-6-6-|
|-5-5-5-5--5--5-5-5-5-|
|---------------------|x8

|--10-10-10-10-10-10-10-10-10-10-10-10-10-10-|
|--------------------------------------------|
|--7--7--7--7--7--7--7--7--7--7--7--7--7--7--|
|--------------------------------------------|
|--------------------------------------------|
|--------------------------------------------|x3

solo
|--15^~------------------------------------------------------------|
|------------------------------------------------------------------|
|------12^~---12^~\--12^-12h10----10-12-10-12^--7h10h7-------------|
|------------------------------12----------------------10-7--------|
|-----------------------------------------------------------10-8^\-|
|------------------------------------------------------------------|

|----------------------------------------------------------|
|----------------------------------------------------------|
|--10^-10^h10-7----7h10h7----7-7^-7^-7h5---5-7~--7~7~7~7~--|
|---------------10--------10-------------7-----------------|
|----------------------------------------------------------|
|----------------------------------------------------------|

|-------10-12p10----10----13----13-------------------------|
|--13^-----------13----13^---13^----13^--xx----------------|
|----------------------------------------------------------|
|----------------------------------------------------------|
|----------------------------------------------------------|
|----------------------------------------------------------|

verse
|--------------------------------------------|
|---3----------------------------------------|
|---2----------------------------------------|
|-0-0--0h3-3-3-3-xx-5-5--5/6-6-6--3----------|
|-0-0--0h3-3-3-3-xx-5-5--5/6-6-6--3----------|
|-0-0--0h3-3-3-3-xx-5-5--5/6-6-6--3----------|x4

|--------------------------------------------|
|--------------------------------------------|
|-7-7-7\5-5-5------2-2--3-3--3-3-3-----------|
|-7-7-7\5-5-5------2-2--3-3--3-3-3-----------|
|-5-5-5\3-3-3--3p0-0-0--1-1--1-1-1-----------|
|--------------------------------------------|x8

|-------|
|-3-->--|
|-2-->--|
|-0-->--|
|-0-->--|
|-0-->--|

This is my first tab so enjoy!

            
            
Suggest correction
Creating personal tab
Creating personal tab
You can edit any tab online and save it as your Personal.

You can edit, replace or remove any tab part or add personal notes – all changes will be seen only by you.

Personal tabs can be accessed anytime from any device, even offline.
Learn more »
Give kudos to tab author, rate the tab!
1 2 3 4 5
comments
print report bad tab
2 comments total.
0 reply
aliceinchains42 128 Dec 11, 2006 02:15 PM

the intro is a little messed up but everything else is fantastic

0 reply
paintman88 10 Jun 25, 2009 09:36 PM

nice tab

guest
You may want to rate the tab now too:
select rating
Wanna post a correction for this tab? Suggest correction