Oops, an error
Loading. Please wait.

Livin In Sin bass

version 1
version 1

Whole song

Interactive

904 views 1 this week
2 commentsread comments
1 2 3 4 5
2 more votes to show rating
add to favorites
×
Save as Personal and add changes to this tab that will be seen only by you. Learn more ›
×
You can save this tab as Personal to edit and correct it or add notes. All changes will be seen only by you. Learn more »
launch autoscroll
font size
0
reset
guitar tuner
edit
Autoscroll
slow
fast
+/-
esc
set tempo
stop
Song:living in sin
Artist:Godsmack
Tabbed by: Dan da man
Email: d64snowboard@hotmail.com


theres a bit of talking and then a 
2 BAR guitar into then...

intro/verse
G------------|-------------|-------------|--------------|
D------------|-------------|-------------|--------------|  x5
A------------|-------------|-------------|------1--3--5-|
D-0-0--------|-0-0---------|-0-0---------|-0-0----------|


chorus(pretty much the verse but let the note ring)
G------------|-------------|-------------|--------------|
D------------|-------------|-------------|--------------|  x4
A------------|-------------|-------------|--------------|
D-0-0~~~-----|-0-0~~~------|-0-0~~~------|-0-0~-1~~-----|


play verse
play chorus

bridge
G------------|
D------------| x6
A----3~------|
D-1~----0~---|

during guitar solo
G------------|
D------------|
A------------|
D-1~~~-0~~~~~|

play chorus for the rest of the song

i tabbed this song because there were no other tabs
i hope you like it (:

            
            
Suggest correction
Creating personal tab
Creating personal tab
You can edit any tab online and save it as your Personal.

You can edit, replace or remove any tab part or add personal notes – all changes will be seen only by you.

Personal tabs can be accessed anytime from any device, even offline.
Learn more »
Give kudos to tab author, rate the tab!
1 2 3 4 5
comments
print report bad tab
2 comments total.
0 reply
tynman_19 20 Jul 17, 2007 12:12 PM

this is an awesome tab, good job. but i think there is more bass going on during the solo

0 reply
a_Bass_guy 10 Dec 15, 2010 07:17 AM

good tab the main thing noticed though was that your tuning was off a bit it's actually tuned: C G C F low to high

guest
You may want to rate the tab now too:
select rating
Wanna post a correction for this tab? Suggest correction