Oops, an error
Loading. Please wait.

Livin In Sin solo tab

version 1
version 1

Solo

Whole song

Interactive

575 views 1 this week
3 commentsread comments
1 2 3 4 5
x 4
add to favorites
×
Save as Personal and add changes to this tab that will be seen only by you. Learn more ›
×
You can save this tab as Personal to edit and correct it or add notes. All changes will be seen only by you. Learn more »
launch autoscroll
font size
0
reset
how to read this tab
guitar tuner
edit
Autoscroll
slow
fast
+/-
esc
set tempo
stop
Author
Difficulty
Ok.. I finally figured it out so here you go.. Let me know if I messed anything up..

 Solo     3:11
e|--------------------------------------------------------------------------|
B|------------------------------------13-13---------------------------------|
G|-12b14-12b14-10---------------12/14------12--10----9/10-9/10--------------|
D|-----------------12p10-10p12--------------------12-----------12p10p12~----|
A|--------------------------------------------------------------------------|
D|--------------------------------------------------------------------------|

e|--------------------------------------------------------------------------|
B|------------------------------------------------------13b-13b-13b--10-13b-|
G|-12/14~-14-14-14-14/12-10-10p12--10---10-10/12-10---10--------------------|
D|------------------------------------12------------12----------------------|
A|--------------------------------------------------------------------------|
D|--------------------------------------------------------------------------|

e|-------13-----------13----13-15b--15-15b-13-15p13-15/17-13----------------|
B|-13p15----15--13p15----15----------------------------------15p13-13p15----|
G|--------------------------------------------------------------------------|
D|--------------------------------------------------------------------------|
A|--------------------------------------------------------------------------|
D|--------------------------------------------------------------------------|
             |                                 |
e|--------------------------------------------------------------------------|
B|-13b-15p13----------------------------------------------------------------|
G|-----------14-13p12p10-10/12-10-------------------------------------------|
D|--------------------------------12p11p10----------------------------------|
A|--------------------------------------------------------------------------|
D|--------------------------------------------------------------------------|

            
            
Suggest correction
Creating personal tab
Creating personal tab
You can edit any tab online and save it as your Personal.

You can edit, replace or remove any tab part or add personal notes – all changes will be seen only by you.

Personal tabs can be accessed anytime from any device, even offline.
Learn more »
comments
print report bad tab
3 comments total.
0 reply
Andrew Zara 41,519 Jun 06, 2006 06:04 PM

Looks good, but I'd change this:
|-9/10-9/10-|

To This:

|-10/12-10/12-|in the beginning part, other than that it's perfect.

0 reply
Metalsmack355 509 Sep 04, 2006 09:57 AM

This is awesome man. Good Job!

0 reply
linkinpark4321 10 Nov 27, 2006 12:33 PM

this is write in some parts but some times you slides and some extra notes in there that should not go

guest
You may want to rate the tab now too:
select rating
Wanna post a correction for this tab? Suggest correction