Oops, an error
Loading. Please wait.

Livin In Sin tab

version 1
version 1

Whole song

Interactive

3,303 views 1 this week
4 commentsread comments
1 2 3 4 5
x 3
add to favorites
×
Save as Personal and add changes to this tab that will be seen only by you. Learn more ›
×
You can save this tab as Personal to edit and correct it or add notes. All changes will be seen only by you. Learn more »
launch autoscroll
font size
0
reset
how to read this tab
guitar tuner
edit
Autoscroll
slow
fast
+/-
esc
set tempo
stop
Livin´in sin
Godsmack
Track number 1 from IV
Tunning: Standard drop D (DADGBE); Or as Godsmack play it: 1 full step down drop C (CGCFAD)

This is an extremly easy song, is fun to play and sounds like you actually are a good guitar player
when you do. I hope you can palmute and slide power chords at the same time you will need that
the full song (even in the parts i didnt added the palmute lines). About the tunning i dont think
Tony plays drop C this song cause the open chords sounds too much like open D to be an open C (as
must of my friends point out). I coudnt figure out the solo read what i wrote about it down there.


Intro (starts at 00:26)
e||-------------------------------------------||
B||-------------------------------------3-----||
G||--9/109--x-x--7/97--x-x--75.2-/32----------|| x5
D||--x-------x-x--x------x-x--x-x--x--x.0-----||
A||--7/8.9--x-x--5/75--x-x--53p0-/1p0---------||
D||----------0-0---------0-0------------------||
Pm           . .         . .

Verse
e||--------------------------------------------||
B||--------------------------------------3-----||
G||--9/109--x-x--7/97--x-x--753.2-/32----------|| x2
D||--x-------x-x--x------x-x--x-x-x-x--x.0-----||
A||--7/8.9--x-x--5/75--x-x--531p0-/1p0---------||
D||----------0-0---------0-0-------------------||
Pm           . .         . .

e||----------------------------------------------||
B||----------------------------------------3-----||
G||--9/109--x-x--10/1210--x-x--75.2-/32----------||
D||--x-------x-x--x---------x-x--x-x--x--x.0-----||
A||--7/8.9--x-x--8./108---x-x--53p0-/1p0---------||
D||----------0-0------------0-0------------------||
Pm           . .            . .

e||------------------------------------------------------------------||
B||------------------------------------------------------------------||
G||--9/109--x-x--7/97--x-x-------------------------------------------||
D||--x-------x-x--x------x-x---888888--1212121212--1515151515--15----||
A||--7/8.9--x-x--5/75--x-x---888888--1212121212--1515151515--15------||
D||----------0-0---------0-0---888888--1212121212--1515151515--15----||
                               Cha...........iiii.........iiinnnn
Pm           . .         . .


Chorus

e||-----------------------------------------------------------||
B||-----------------------------------------------------------||
G||-------10-109--------9-97--------7-73--33333---------------|| x2
D||--0-0--10-109---0-0--9-97---0-0--7-73--33333-33/-(0)-------||
A||--0-0--8--8.7---0-0--7-75---0-0--5-51--11111-33/-(0)-------||
D||--0-0------------0-0----------0-0---------------33/-(0)----||

e||--------------------------------------------------------------||
B||--------------------------------------------------------------||
G||-------10-109--------12-1210--------7-73--33333---------------||
D||--0-0--10-109---0-0--12-1210---0-0--7-73--33333-33/-(0)-------||
A||--0-0--8--8.7---0-0--10-108----0-0--5-51--11111-33/-(0)-------||
D||--0-0------------0-0-------------0-0---------------33/-(0)----||

e||--------------------------------------------------||
B||--------------------------------------------------||
G||-------10-109--------9-97--------7-73--3...-------||
D||--0-0--10-109---0-0--9-97---0-0--7-73--3...-------||
A||--0-0--8--8.7---0-0--7-75---0-0--5-51--1...-------||
D||--0-0------------0-0----------0-0-----------------||

Verse

e||--------------------------------------------||
B||--------------------------------------3-----||
G||--9/109--x-x--7/97--x-x--753.2-/32----------|| x2
D||--x-------x-x--x------x-x--x-x-x-x--x.0-----||
A||--7/8.9--x-x--5/75--x-x--531p0-/1p0---------||
D||----------0-0---------0-0-------------------||
Pm           . .         . .

e||----------------------------------------------||
B||----------------------------------------3-----||
G||--9/109--x-x--10/1210--x-x--75.2-/32----------||
D||--x-------x-x--x---------x-x--x-x--x--x.0-----||
A||--7/8.9--x-x--8./108---x-x--53p0-/1p0---------||
D||----------0-0------------0-0------------------||
Pm           . .            . .

e||------------------------------------------------------------------||
B||------------------------------------------------------------------||
G||--9/109--x-x--7/97--x-x-------------------------------------------||
D||--x-------x-x--x------x-x---888888--1212121212--1515151515--15----||
A||--7/8.9--x-x--5/75--x-x---888888--1212121212--1515151515--15------||
D||----------0-0---------0-0---888888--1212121212--1515151515--15----||
                               Live..............e........it.....

Chorus

e||-----------------------------------------------------------||
B||-----------------------------------------------------------||
G||-------10-109--------9-97--------7-73--33333---------------|| x2
D||--0-0--10-109---0-0--9-97---0-0--7-73--33333-33/-(0)-------||
A||--0-0--8--8.7---0-0--7-75---0-0--5-51--11111-33/-(0)-------||
D||--0-0------------0-0----------0-0---------------33/-(0)----||

e||--------------------------------------------------------------||
B||--------------------------------------------------------------||
G||-------10-109--------12-1210--------7-73--33333---------------||
D||--0-0--10-109---0-0--12-1210---0-0--7-73--33333-33/-(0)-------||
A||--0-0--8--8.7---0-0--10-108----0-0--5-51--11111-33/-(0)-------||
D||--0-0------------0-0-------------0-0---------------33/-(0)----||

e||--------------------------------------------------||
B||--------------------------------------------------||
G||-------10-109--------9-97--------7-73--3...-------||
D||--0-0--10-109---0-0--9-97---0-0--7-73--3...-------||
A||--0-0--8--8.7---0-0--7-75---0-0--5-51--1...-------||
D||--0-0------------0-0----------0-0-----------------||

Bridge (slow part)

e||---------------0----------------0--|----------------||
B||--------1------2---------3------2--|----------------||
G||------3---3----3-------3---3----3--|--10-109/10-----||
D||----3-------3--0-----3-------3--0--|--x--x--x-x-----||
A||--1------------0---1------------0--|--8--8.7/8------||
D||-----------------------------------|----------------||

e||---------------0-------------------------------------||
B||--------1------2--------5------------6------------3--||
G||------3---3----3------5---5--------5---5--------5----||
D||----3-------3--0----5-------5----5-------5----5------||
A||--1------------0--3------------3------------3--------||
D||-----------------------------------------------------||

e||---------------0-------------------|----------------||
B||--------1------2---------3------2--|----------------||
G||------3---3----3-------3---3----3--|--10-109/10-----||
D||----3-------3--0-----3-------3--0--|--x--x--x-x-----||
A||--1------------0---1------------0--|--8--8.7/8------||
D||-----------------------------------|----------------||

e||---------------0---------------------------------||
B||--------1------2--------5----------------Guitar--||
G||------3---3----3------5---5----5-5-5-5----Solo---||
D||----3-------3--0----5-------5--5-5-5-5---Enters--||
A||--1------------0--3------------3-3-3-3-----------||
D||-------------------------------------------------||

Guitar Solo: (acctually I´m too lazy to figure this out, must of the solo is on the scales
              that i´m giving you, you dont need any efecte and there are some repeated
              beddings on the 12 adn 14 frets listen carefully)

e||--------------------------------12-15--|------------------------------10-12-13--||
B||--------------------------12-15--------|------------------------10-12-----------||
G||--------------------12-14--------------|----------------9-10-12-----------------||
D||--------------12-14--------------------|--------9-10-12-------------------------||
A||--------12-14--------------------------|-----12---------------------------------||
D||--12-15--------------------------------|--12------------------------------------||


Now, this is what i´ve got, change what you like

e||------------------------------------------------------------------------------------||
B||------------------------------------------------------------------------------------||
G||--9fb(11).r9--9fb(11).r9--9fb(11).r9--9fb(11).r9---9-7------10-9------------10--12--||
D||-------------------------------------------------------9-10-----------10-12---------||
A||-------------------------------------------------------------------12---------------||
D||------------------------------------------------------------------------------------||

e||------------------------------------------------------------------------------------------------||
B||-------------------------------------------------------------------15-12-14--15-----------------||
G||--10fb(12).r10--10fb(12).r10-10fb(12).r10---------------------------------------12-10-15-12-14--||
D||-------------------------------------------9-10/12--12fb(14).r12--------------------------------||
A||------------------------------------------------------------------------------------------------||
D||------------------------------------------------------------------------------------------------||

e||-----------------------------------------------------------------------------------------------------------||
B||---------------------------------------12-15---------------------------------------------------------------||
G||---------------12p10-------------12-14-------14-12-10------------------------------------------------------||
D||------9-10h12--------9/12--12-14----------------------12------12-12fb(14).r12--14fb(16).r14--14fb(16).r14--||
A||--/12----------------------------------------------------10-9----------------------------------------------||
D||-----------------------------------------------------------------------------------------------------------||

Chorus

e||-----------------------------------------------------------||
B||-----------------------------------------------------------||
G||-------10-109--------9-97--------7-73--33333---------------|| x2
D||--0-0--10-109---0-0--9-97---0-0--7-73--33333-33/-(0)-------||
A||--0-0--8--8.7---0-0--7-75---0-0--5-51--11111-33/-(0)-------||
D||--0-0------------0-0----------0-0---------------33/-(0)----||

e||--------------------------------------------------------------||
B||--------------------------------------------------------------||
G||-------10-109--------12-1210--------7-73--33333---------------||
D||--0-0--10-109---0-0--12-1210---0-0--7-73--33333-33/-(0)-------||
A||--0-0--8--8.7---0-0--10-108----0-0--5-51--11111-33/-(0)-------||
D||--0-0------------0-0-------------0-0---------------33/-(0)----||

e||-----------------------------------------------------------||
B||-----------------------------------------------------------||
G||-------10-109--------9-97--------7-73--33333---------------|| x4 (or 5 not sure)
D||--0-0--10-109---0-0--9-97---0-0--7-73--33333-33/-(0)-------||
A||--0-0--8--8.7---0-0--7-75---0-0--5-51--11111-33/-(0)-------||
D||--0-0------------0-0----------0-0---------------33/-(0)----||

Ten song ends on

e||-----||
B||-----||
G||--3--||
D||--3--||
A||--1--||
D||-----||
Suggest correction
Creating personal tab
Creating personal tab
You can edit any tab online and save it as your Personal.

You can edit, replace or remove any tab part or add personal notes – all changes will be seen only by you.

Personal tabs can be accessed anytime from any device, even offline.
Learn more »
Give kudos to tab author, rate the tab!
1 2 3 4 5
comments
print report bad tab
4 comments total. Showing first comments.
0 reply
marianoarnaiz 1,521 May 01, 2006 03:35 PM

e||-------------------------------------------||
B||-------------------------------------3-----||
G||--9/10\0--x-x--7/9\7--x-x--7\5.2-/32-------||
D||--x-------x-x--x------x-x--x-x-x--x.-0-----||
A||--7/8.\7--x-x--5/7\5--x-x--5\3p0-/1p0------||
D||----------0-0---------0-0------------------||

e||--------------------------------------------||
B||----------------------------------------3---||
G||--9/10\9--x-x--10/12\10--x-x--7\5.2-/32-----||
D||--x-------x-x--x---------x-x--x-x-x--x.0----||
A||--7/8.\7--x-x--8./10\8---x-x--5\3p0-/1p0----||
D||----------0-0------------0-0----------------||

e||------------------------------------------------------------------||
B||------------------------------------------------------------------||
G||--9/10\9--x-x--7/9\7--x-x-----------------------------------------||
D||--x-------x-x--x------x-x---888888--1212121212--1515151515--15----||
A||--7/8.\7--x-x--5/7\5--x-x---888888--1212121212--1515151515--15----||
D||----------0-0---------0-0---888888--1212121212--1515151515--15----||

e||-----------------------------------------------------------||
B||-----------------------------------------------------------||
G||-------10-10\9--------9-9\7--------7-7\3--33333------------||
D||--0-0--10-10\9---0-0--9-9\7---0-0--7-7\3--33333-33/-(0)----||
A||--0-0--8--8.\7---0-0--7-7\5---0-0--5-5\1--11111-33/-(0)----||
D||--0-0------------0-0----------0-0---------------33/-(0)----||


e||--------------------------------------------------------------||
B||--------------------------------------------------------------||
G||-------10-10\9--------12-12\10--------7-7\3--33333------------||
D||--0-0--10-10\9---0-0--12-12\10---0-0--7-7\3--33333-33/-(0)----||
A||--0-0--8--8.\7---0-0--10-10\8----0-0--5-5\1--11111-33/-(0)----||
D||--0-0------------0-0-------------0-0---------------33/-(0)----||

0 reply
marianoarnaiz 1,521 May 01, 2006 03:36 PM

i have to apologise, i tab this really quick and today i´m watching that there are some mistakes in the tab, about the slide and things like that, here are the 5 lines of the song that where screw-up, sorry about that guys

0 reply
marianoarnaiz 1,521 May 01, 2006 03:37 PM

i think that with the fixxed things its OK thnx for the ******(2 stars), who ever you are

guest
You may want to rate the tab now too:
select rating
Wanna post a correction for this tab? Suggest correction