Oops, an error
Loading. Please wait.

Livin In Sin tab

version 3
version 3

Whole song

Interactive

2,056 views 1 this week
2 commentsread comments
1 2 3 4 5
x 6
add to favorites
×
Save as Personal and add changes to this tab that will be seen only by you. Learn more ›
×
You can save this tab as Personal to edit and correct it or add notes. All changes will be seen only by you. Learn more »
launch autoscroll
font size
0
reset
how to read this tab
guitar tuner
edit
Autoscroll
slow
fast
+/-
esc
set tempo
stop
Livin I Sin
------------

song-  Livin In Sin
band-  Godsmack
album- Godsmack 4
year-  2006


tuning:

Drop D (D A D G B e)


Intro


|----------------|----------------|-----------------------------| ---
|----------------|----------------|-----------------------------|  |
|----------------|----------------|-----------------------------|  |
|-------0h3--3p2-|-------0h2--2p0-|----------------------0--0---|  |
|----------------|----------------|-------5p3--3p0--0h1---------|  |
|0--0------------|0--0------------|0--0-------------------------|  |
 PM--|            PM--|            PM--|                           2x
                                                                   |
|----------------|----------------|-----------------------------|  |
|----------------|----------------|-----------------------------|  |
|----------------|----------------|-----------------------------|  |
|-------0h3--3p2-|-------0h2--2p0-|----------------------0------|  |
|----------------|----------------|-------5p3--3p0--0h1---------|  |
|0--0------------|0--0------------|0--0-------------------------| ---
 PM--|            PM--|            PM--|


Verse 1

|----------------|----------------|-----------------------------|
|----------------|----------------|-----------------------------|
|----------------|----------------|-----------------------------|
|-------0h3--3p2-|-------0h2--2p0-|----------------------0--0---|
|----------------|----------------|-------5p3--3p0--0h1---------|
|0--0------------|0--0------------|0--0-------------------------|
 PM--|            PM--|            PM--|    

|----------------|----------------|-----------------------------|
|----------------|----------------|-----------------------------|
|----------------|----------------|-----------------------------|
|-------0h3--3p2-|-------0h2--2p0-|----------------------0------|
|----------------|----------------|-------5p3--3p0--0h1---------|
|0--0------------|0--0------------|0--0-------------------------|
 PM--|            PM--|            PM--|    

|----------------|----------------|-----------------------------|
|----------------|----------------|-----------------------------|
|----------------|----------------|-----------------------------|
|-------0h3--3p2-|-------2h5--5p2-|----------------------0--0---|
|----------------|----------------|-------5p3--3p0--0h1---------|
|0--0------------|0--0------------|0--0-------------------------|
 PM--|            PM--|            PM--|

|----------------|----------------|
|----------------|----------------|
|----------------|----------------|
|-------0h3--3p2-|-------0h2--2p0-|
|----------------|----------------|
|0--0------------|0--0------------|
 PM--|            PM--| 

|------------------|------------------|------------------------|
|------------------|------------------|------------------------|
|------------------|------------------|------------------------|
|10-10-10-10-10-10-|12-12-12-12-12-12-|15-15-15-15-15-15-15----|
|10-10-10-10-10-10-|12-12-12-12-12-12-|15-15-15-15-15-15-15----|
|10-10-10-10-10-10-|12-12-12-12-12-12-|15-15-15-15-15-15-15----|


Chorus 1

 /---------------------------------2x-------------------------\

|----------------|--------------|--------------|---------------|
|----------------|--------------|--------------|---------------|
|-----7--10-10-9-|-----7--9-9-7-|-----5--7-7-5-|3-3--5-5-------|
|0-0--7--10-10-9-|0-0--7--9-9-7-|0-0--5--7-7-5-|3-3--5-5--3-3--|
|0-0--5---8--8-7-|0-0--5--7-7-5-|0-0--3--5-5-3-|1-1--3-3--3-3--|
|0-0-------------|0-0-----------|0-0-----------|----------3-3--|

|----------------|------------------|--------------|---------------|
|----------------|------------------|--------------|---------------|
|-----7--10-10-9-|-----10--12-12-10-|-----5--7-7-5-|3-3--5-5-------|
|0-0--7--10-10-9-|0-0--10--12-12-10-|0-0--5--7-7-5-|3-3--5-5--3-3--|
|0-0--5---8--8-7-|0-0---8--10-10--8-|0-0--3--5-5-3-|1-1--3-3--3-3--|
|0-0-------------|0-0---------------|0-0-----------|----------3-3--|

|----------------|--------------|---------|
|----------------|--------------|---------|
|-----7--10-10-9-|-----7--9-9-7-|5--------|
|0-0--7--10-10-9-|0-0--7--9-9-7-|5--------|
|0-0--5---8--8-7-|0-0--5--7-7-5-|3--------|
|0-0-------------|0-0-----------|---------|


Interlude     gtr 1

|----------------|----------------|-----------------------------|
|----------------|----------------|-----------------------------|
|----------------|----------------|-----------------------------|
|-------0h3--3p2-|-------0h2--2p0-|----------------------0--0---|
|----------------|----------------|-------5p3--3p0--0h1---------|
|0--0------------|0--0------------|0--0-------------------------|
 PM--|            PM--|            PM--|

|----------------|----------------|-----------------------------|
|----------------|----------------|-----------------------------|
|----------------|----------------|-----------------------------|
|-------0h3--3p2-|-------0h2--2p0-|----------------------0------|
|----------------|----------------|-------5p3--3p0--0h1---------|
|0--0------------|0--0------------|0--0-------------------------|
 PM--|            PM--|            PM--|


gtr 2

(sorry folks still tryin 2 figure it out)


Verse 2

|----------------|----------------|-----------------------------|
|----------------|----------------|-----------------------------|
|----------------|----------------|-----------------------------|
|-------0h3--3p2-|-------0h2--2p0-|----------------------0--0---|
|----------------|----------------|-------5p3--3p0--0h1---------|
|0--0------------|0--0------------|0--0-------------------------|
 PM--|            PM--|            PM--|    

|----------------|----------------|-----------------------------|
|----------------|----------------|-----------------------------|
|----------------|----------------|-----------------------------|
|-------0h3--3p2-|-------0h2--2p0-|----------------------0------|
|----------------|----------------|-------5p3--3p0--0h1---------|
|0--0------------|0--0------------|0--0-------------------------|
 PM--|            PM--|            PM--|    

|----------------|----------------|-----------------------------|
|----------------|----------------|-----------------------------|
|----------------|----------------|-----------------------------|
|-------0h3--3p2-|-------2h5--5p2-|----------------------0--0---|
|----------------|----------------|-------5p3--3p0--0h1---------|
|0--0------------|0--0------------|0--0-------------------------|
 PM--|            PM--|            PM--|

|----------------|----------------|
|----------------|----------------|
|----------------|----------------|
|-------0h3--3p2-|-------0h2--2p0-|
|----------------|----------------|
|0--0------------|0--0------------|
 PM--|            PM--| 

|------------------|------------------|------------------------|
|------------------|------------------|------------------------|
|------------------|------------------|------------------------|
|10-10-10-10-10-10-|12-12-12-12-12-12-|15-15-15-15-15-15-15----|
|10-10-10-10-10-10-|12-12-12-12-12-12-|15-15-15-15-15-15-15----|
|10-10-10-10-10-10-|12-12-12-12-12-12-|15-15-15-15-15-15-15----|


Chorus 2

 /---------------------------------2x-------------------------\

|----------------|--------------|--------------|---------------|
|----------------|--------------|--------------|---------------|
|-----7--10-10-9-|-----7--9-9-7-|-----5--7-7-5-|3-3--5-5-------|
|0-0--7--10-10-9-|0-0--7--9-9-7-|0-0--5--7-7-5-|3-3--5-5--3-3--|
|0-0--5---8--8-7-|0-0--5--7-7-5-|0-0--3--5-5-3-|1-1--3-3--3-3--|
|0-0-------------|0-0-----------|0-0-----------|----------3-3--|

|----------------|------------------|--------------|---------------|
|----------------|------------------|--------------|---------------|
|-----7--10-10-9-|-----10--12-12-10-|-----5--7-7-5-|3-3--5-5-------|
|0-0--7--10-10-9-|0-0--10--12-12-10-|0-0--5--7-7-5-|3-3--5-5--3-3--|
|0-0--5---8--8-7-|0-0---8--10-10--8-|0-0--3--5-5-3-|1-1--3-3--3-3--|
|0-0-------------|0-0---------------|0-0-----------|----------3-3--|

|----------------|--------------|---------|
|----------------|--------------|---------|
|-----7--10-10-9-|-----7--9-9-7-|5--------|
|0-0--7--10-10-9-|0-0--7--9-9-7-|5--------|
|0-0--5---8--8-7-|0-0--5--7-7-5-|3--------|
|0-0-------------|0-0-----------|---------|


Bridge

|-------------0--|-------------0--|-----------|
|------1------3--|------1------3--|-----------|
|----3---3----2--|----3---3----2--|-----------|
|--3-------3--0--|--3-------3--0--|-----------|
|1------------0--|1------------0--|7--7-8--7--|
|----------------|----------------|-----------|

                                                /-----3x---\

|-------------0--|-------------0--|------------|------------|
|------1------3--|------1------3--|------1-----|------3-----|
|----3---3----2--|----3---3----2--|----3---3---|----5---5---|
|--3-------3--0--|--3-------3--0--|--3-------3-|--5-------5-|
|1------------0--|1------------0--|1-----------|3-----------|
|----------------|----------------|------------|------------|

|-------------0--|-------------0--|-----------|
|------1------3--|------1------3--|-----------|
|----3---3----2--|----3---3----2--|-----------|
|--3-------3--0--|--3-------3--0--|-----------|
|1------------0--|1------------0--|7--7-8--7--|
|----------------|----------------|-----------|

                                                /-----3x---\

|-------------0--|-------------0--|------------|------------|
|------1------3--|------1------3--|------1-----|------3-----|
|----3---3----2--|----3---3----2--|----3---3---|----5---5---|
|--3-------3--0--|--3-------3--0--|--3-------3-|--5-------5-|
|1------------0--|1------------0--|1-----------|3-----------|
|----------------|----------------|------------|------------|


Interlude   gtr 1

(sorry folks still tryin 2 figure it out)


gtr 2 (SOlo)

(sorry folks still tryin 2 figure it out)


Chorus 3

 /---------------------------------2x-------------------------\

|----------------|--------------|--------------|---------------|
|----------------|--------------|--------------|---------------|
|-----7--10-10-9-|-----7--9-9-7-|-----5--7-7-5-|3-3--5-5-------|
|0-0--7--10-10-9-|0-0--7--9-9-7-|0-0--5--7-7-5-|3-3--5-5--3-3--|
|0-0--5---8--8-7-|0-0--5--7-7-5-|0-0--3--5-5-3-|1-1--3-3--3-3--|
|0-0-------------|0-0-----------|0-0-----------|----------3-3--|

|----------------|------------------|--------------|---------------|
|----------------|------------------|--------------|---------------|
|-----7--10-10-9-|-----10--12-12-10-|-----5--7-7-5-|3-3--5-5-------|
|0-0--7--10-10-9-|0-0--10--12-12-10-|0-0--5--7-7-5-|3-3--5-5--3-3--|
|0-0--5---8--8-7-|0-0---8--10-10--8-|0-0--3--5-5-3-|1-1--3-3--3-3--|
|0-0-------------|0-0---------------|0-0-----------|----------3-3--|

 /---------------------------------4x-------------------------\

|----------------|--------------|--------------|---------------|
|----------------|--------------|--------------|---------------|
|-----7--10-10-9-|-----7--9-9-7-|-----5--7-7-5-|3-3--5-5-------|
|0-0--7--10-10-9-|0-0--7--9-9-7-|0-0--5--7-7-5-|3-3--5-5--3-3--|
|0-0--5---8--8-7-|0-0--5--7-7-5-|0-0--3--5-5-3-|1-1--3-3--3-3--|
|0-0-------------|0-0-----------|0-0-----------|----------3-3--|

|----------------|--------------|---------|
|----------------|--------------|---------|
|-----7--10-10-9-|-----7--9-9-7-|5--------|
|0-0--7--10-10-9-|0-0--7--9-9-7-|5--------|
|0-0--5---8--8-7-|0-0--5--7-7-5-|3--------|
|0-0-------------|0-0-----------|---------|



Tab Legend
-----------

PM     palm mute
h      hammer on
p      pull off



Well There ya go! Please Rate!!

            
            
Suggest correction
Creating personal tab
Creating personal tab
You can edit any tab online and save it as your Personal.

You can edit, replace or remove any tab part or add personal notes – all changes will be seen only by you.

Personal tabs can be accessed anytime from any device, even offline.
Learn more »
comments
print report bad tab
2 comments total.
0 reply
linkinpark4321 10 Nov 27, 2006 12:35 PM

this is bad

0 reply
tmjoyboy 10 Feb 02, 2007 04:01 AM

wrong

guest
You may want to rate the tab now too:
select rating
Wanna post a correction for this tab? Suggest correction