Oops, an error
Loading. Please wait.

Livin In Sin tab

version 4
version 4

Whole song

Interactive

5,730 views 1 this week
5 commentsread comments
1 2 3 4 5
x 17
add to favorites
×
Save as Personal and add changes to this tab that will be seen only by you. Learn more ›
×
You can save this tab as Personal to edit and correct it or add notes. All changes will be seen only by you. Learn more »
launch autoscroll
font size
0
reset
how to read this tab
guitar tuner
edit
Autoscroll
slow
fast
+/-
esc
set tempo
stop
Author
Difficulty
livin in sin (LOW TO HIGH) DADGBE
                                   *=PALM MUTE      p=PULL OFF
                                   \=SLIDE DOWN     h=HAMMER ON
                                   /=SLIDE UP       ^^=hold behind
                                   ^=BEND

intr.(dist)
-----------------------------------------------|
-----------------------------------------------|
-----------------------------------------------|
-----0h3-3p2-----0h2-2p0-----------------0---0-|
---0-----------0-----------0-5p3-3p0-0h1---1---|
-0-----------0-----------0---------------------|
 * *         * *         * *

intro con.(dist)
-------------------------------------------------|
-------------------------------------------------|
-------------------------------------------------|
-----0h3-3p2-----0h2-2p0-----------------0-------|
---0-----------0-----------0-5p3-3p0-0h1---(1)-/-|
-0-----------0-----------0-----------------------|
 * *         * *         * *

intro cont (dist)
-----------------------------------------------------|
-----------------------------------------------------|
-----------------------------------------------------|
-----0h3-3p2-----0h2-2p0-----------------0----0------|
---0-----------0-----------0-5p3-3p0-0h1---1-(1)-/-3-|
-0-----------0-----------0---------------------------|
 * *         * *         * *

intro cont (dist)
-----------------------------------------------|
-----------------------------------------------|
-----------------------------------------------|
-----0h3-3p2-----0h2-2p0-----------------0---0-|
---0-----------0-----------0-5p3-3p0-0h1---1---|
-0-----------0-----------0---------------------|
 * *         * *         * *

verse (dist)
-----------------------------------------------------|
-----------------------------------------------------|
-----------------------------------------------------|
-----0h3-3p2-----0h2-2p0-----------------0----0------|
---0-----------0-----------0-5p3-3p0-0h1---1-(1)-/-3-|
-0-----------0-----------0---------------------------|
 * *         * *         * *

verse cont (dist)
-----------------------------------------------------|
-----------------------------------------------------|
-----------------------------------------------------|
-----0h3-3p2-----0h2-2p0-----------------0----0------|
---0-----------0-----------0-5p3-3p0-0h1---1-(1)-/-3-|
-0-----------0-----------0---------------------------|
 * *         * *         * *

verse cont (dist)
------------------------------------------------------------------------------------------|
------------------------------------------------------------------------------------------|
------------------------------------------------------------------------------------------|
-----0h3-3p2-----0h5-5-------------------0----0----------0h3-3p2-----0h2-2p0--------------|
---0-----------0-------7---0-5p3-3p0-0h1---1-(1)-/-3---0-----------0----------------------|
-0-----------0-----------0---------------------------0-----------0------------------------|
 * *         * *         * *                         * *         * *

pre-chorus (dist)
-------------------------------------|
-----------------------3-3-3-3-3-3-3-|
-3---------------------3-3-3-3-3-3-3-|
-3-3-3-3-3-3-3-3-3-3-3-3-3-3-3-3-3-3-|
-1-1-1-1-1-1-1-1-1-1-1-1-1-1-1-1-1-1-|
-------------------------------------|
   * * * * * * * * * *

chorus (dist)
-----------------------------------------------------------|
-----------------------------------------------------------|
-----------------------------------------------------------|
-------10-10-\-9-------9-9-\-7-------7-7-\-5-3-3-3-3-3-/-5-|
-0-0-0--8--8-\-7-0-0-0-7-7-\-5-0-0-0-5-5-\-3-1-1-1-1-1-/-3-|
-0-0-0-----------0-0-0---------0-0-0-----------------------|

chorus cont (dist)
-----------------------------------------------------------|
-----------------------------------------------------------|
-----------------------------------------------------------|
-------10-10-\-9-------9-9-\-7-------7-7-\-5-3-3-3-3-3-/-5-|
-0-0-0--8--8-\-7-0-0-0-7-7-\-5-0-0-0-5-5-\-3-1-1-1-1-1-/-3-|
-0-0-0-----------0-0-0---------0-0-0-----------------------|


chorus cont (dist)
-------------------------------------------------------------|
-------------------------------------------------------------|
-------------------------------------------------------------|
-------10-10-\-9-------12-12-\-9-------7-7-\-5-3-3-3-3-3-/-5-|
-0-0-0--8--8-\-7-0-0-0-10-10-\-7-0-0-0-5-5-\-3-1-1-1-1-1-/-3-|
-0-0-0-----------0-0-0-----------0-0-0-----------------------|

chorus cont (dist)
-----------------------------------|
-----------------------------------|
-----------------------------------|
-------10-10-\-9-------7-7-\-5---3-|
-0-0-0--8--8-\-7-0-0-0-5-5-\-3---1-|
-0-0-0-----------0-0-0-------------|

interlude w/phaser
-------------------------------------------------|
-------------------------------------------------|
---------------------------9-9\7-7-\5-3---3-3-/5-|
-----0h3-3p2-----0h2-2p0---0-0---0----0-0---0----|
---0-----------0---------0-----------------------|
-0-----------0-----------0-----------------------|
 * *         * *

interlude cont w/phaser
-----------------------------------------------------------------|
-----------------------------------------------------------------|
-------------------------x-5-5-/-7-7-/-9-9-/-10-10-10-10-10-/-12-|
-----0h3-3p2-----0h2-2p0-x-0-0-----0-----0-------0--0--0--0------|
---0-----------0-------------------------------------------------|
-0-----------0---------------------------------------------------|
 * *         * *

verse (dist)
-----------------------------------------------------|
-----------------------------------------------------|
-----------------------------------------------------|
-----0h3-3p2-----0h2-2p0-----------------0----0------|
---0-----------0-----------0-5p3-3p0-0h1---1-(1)-/-3-|
-0-----------0-----------0---------------------------|
 * *         * *         * *

verse cont (dist)
-----------------------------------------------------|
-----------------------------------------------------|
-----------------------------------------------------|
-----0h3-3p2-----0h2-2p0-----------------0----0------|
---0-----------0-----------0-5p3-3p0-0h1---1-(1)-/-3-|
-0-----------0-----------0---------------------------|
 * *         * *         * *

verse cont (dist)
------------------------------------------------------------------------------------------|
------------------------------------------------------------------------------------------|
------------------------------------------------------------------------------------------|
-----0h3-3p2-----0h5-5-------------------0----0----------0h3-3p2-----0h2-2p0--------------|
---0-----------0-------7---0-5p3-3p0-0h1---1-(1)-/-3---0-----------0----------------------|
-0-----------0-----------0---------------------------0-----------0------------------------|
 * *         * *         * *                         * *         * *

pre-chorus (dist)
-------------------------------------|
-----------------------3-3-3-3-3-3-3-|
-3---------------------3-3-3-3-3-3-3-|
-3-3-3-3-3-3-3-3-3-3-3-3-3-3-3-3-3-3-|
-1-1-1-1-1-1-1-1-1-1-1-1-1-1-1-1-1-1-|
-------------------------------------|
   * * * * * * * * * *

chorus (dist)
-----------------------------------------------------------|
-----------------------------------------------------------|
-----------------------------------------------------------|
-------10-10-\-9-------9-9-\-7-------7-7-\-5-3-3-3-3-3-/-5-|
-0-0-0--8--8-\-7-0-0-0-7-7-\-5-0-0-0-5-5-\-3-1-1-1-1-1-/-3-|
-0-0-0-----------0-0-0---------0-0-0-----------------------|

chorus cont (dist)
-----------------------------------------------------------|
-----------------------------------------------------------|
-----------------------------------------------------------|
-------10-10-\-9-------9-9-\-7-------7-7-\-5-3-3-3-3-3-/-5-|
-0-0-0--8--8-\-7-0-0-0-7-7-\-5-0-0-0-5-5-\-3-1-1-1-1-1-/-3-|
-0-0-0-----------0-0-0---------0-0-0-----------------------|


chorus cont (dist)
-------------------------------------------------------------|
-------------------------------------------------------------|
-------------------------------------------------------------|
-------10-10-\-9-------12-12-\-9-------7-7-\-5-3-3-3-3-3-/-5-|
-0-0-0--8--8-\-7-0-0-0-10-10-\-7-0-0-0-5-5-\-3-1-1-1-1-1-/-3-|
-0-0-0-----------0-0-0-----------0-0-0-----------------------|

chorus cont (dist)
---------------------------------------|
---------------------------------------|
---------------------------------------|
-------10-10-\-9-------7-7-\-5---3-(3)-|
-0-0-0--8--8-\-7-0-0-0-5-5-\-3---1-(1)-|
-0-0-0-----------0-0-0-----------------|


bridge (clean)
-----------------------------------------------------------------------------------------------------|
-------------3-3-3-3-3-3-3-------------3-3-------------------------3-3-3-3-3-3-1---1-------1-----1-0-|
-------0-----2-2-0-0-2-2-0-------0-----2-2-9-9-\-7-7-\-------0-----2-2-0-0-2-0-0-0---0---0---0-----0-|
-----3---3---0-0-0-0-0-0-0-----3---3---0-0-x-x-----x-------3---3---0-0-0-0-0-0-2---------------2---0-|
---3---------0---------------3---------0---7-7-\-5-5-\---3---------0-----------3-------3-------------|
-3---------0-0-------------3---------0-0---------------3---------0-0---------------------------------|

bridge cont (clean)
--------------------------------------------------------------------------------------------------------------|
-------------3-3-3-3-3-3-------------3-3-------------------------3-3-3-3-3-3--1-1-1-1-1-1-1-1-1-1-1-1-1-1-1-1-|
-------0-----2-2-0-0-2-0-------0-----2-2-9-9-\-7-7---------0-----2-2-0-0-2-0--0-0-0-0-0-0-0-0-0-0-0-0-0-0-0-0-|
-----3---3---0-0-0-0-0-0-----3---3---0-0-x-x-----x-------3---3---0-0-0-0-0-0--2-2-2-2-2-2-2-2-2-2-2-2-2-2-2-2-|
---3---------0-------------3---------0---7-7-\-5-5-\---3---------0------------3-3-3-3-3-3-3-3-3-3-3-3-3-3-3-3-|
-3---------0-0-----------3---------0-0---------------3---------0-0--------------------------------------------|

solo w wah-wah
------------------------------------------------------------------------------------------------------------------|
-12^-12^-(12)-10-(10)^---------------------13---------------------------------------------------------------------|
-12^-12^-(12)-10-(10)^-----------------/14----12-10^----10^-10^----------------12^^-12-12-12-12-12-(12)p10-12-10--|
------------------------12-10-12-(12)\---------------12---------12-10-12-(12)\------------------------------------|
------------------------------------------------------------------------------------------------------------------|
------------------------------------------------------------------------------------------------------------------|
                                                                               -----------------------------------|

solo w wah-wah
---------------------------------------------------------13--------------13----13-15^^-15-15-(15)p13-15-13-15-15^-13--|
-------------13^-(13)^-13^-13^-(13)-10---15-(15)\-/13-15----15-(15)\-/15----15----------------------------------------|
-10h12-10------------------------------0------------------------------------------------------------------------------|
----------12----------------------------------------------------------------------------------------------------------|
----------------------------------------------------------------------------------------------------------------------|
----------------------------------------------------------------------------------------------------------------------|
                                                                                  ------------------------------------|

solo w wah-wah
-(13)^--------------------10---------------------------------------------------------------|
-------15-13-15-(15)\-13^----13p10-------------------------------------------13-13-13------|
-------15--------------------------13p10----13-12p10-12p10----10h12-10-------12-12-12------|
-----------------------------------------12----------------12----------12-10-10-10-10-10-\-|
-------------------------------------------------------------------------------------------|
-------------------------------------------------------------------------------------------|

outro chorus (dist)
-----------------------------------------------------------|
-----------------------------------------------------------|
-----------------------------------------------------------|
-------10-10-\-9-------9-9-\-7-------7-7-\-5-3-3-3-3-3-/-5-|
-0-0-0--8--8-\-7-0-0-0-7-7-\-5-0-0-0-5-5-\-3-1-1-1-1-1-/-3-|
-0-0-0-----------0-0-0---------0-0-0-----------------------|

outro chorus (dist)
-----------------------------------------------------------|
-----------------------------------------------------------|
-----------------------------------------------------------|
-------10-10-\-9-------9-9-\-7-------7-7-\-5-3-3-3-3-3-/-5-|
-0-0-0--8--8-\-7-0-0-0-7-7-\-5-0-0-0-5-5-\-3-1-1-1-1-1-/-3-|
-0-0-0-----------0-0-0---------0-0-0-----------------------|

outro chorus cont (dist)
-------------------------------------------------------------|
-------------------------------------------------------------|
-------------------------------------------------------------|
-------10-10-\-9-------12-12-\-9-------7-7-\-5-3-3-3-3-3-/-5-|
-0-0-0--8--8-\-7-0-0-0-10-10-\-7-0-0-0-5-5-\-3-1-1-1-1-1-/-3-|
-0-0-0-----------0-0-0-----------0-0-0-----------------------|

outro chorus cont (dist)
-----------------------------------|
-----------------------------------|
-----------------------------------|
-------10-10-\-9-------7-7-\-5---3-|
-0-0-0--8--8-\-7-0-0-0-5-5-\-3---1-|
-0-0-0-----------0-0-0-------------|


outro chorus cont (dist)
-----------------------------------------------------------|
-----------------------------------------------------------|
-----------------------------------------------------------|
-------10-10-\-9-------9-9-\-7-------7-7-\-5-3-3-3-3-3-/-5-|
-0-0-0--8--8-\-7-0-0-0-7-7-\-5-0-0-0-5-5-\-3-1-1-1-1-1-/-3-|
-0-0-0-----------0-0-0---------0-0-0-----------------------|

outro chorus cont (dist)
-----------------------------------------------------------|
-----------------------------------------------------------|
-----------------------------------------------------------|
-------10-10-\-9-------9-9-\-7-------7-7-\-5-3-3-3-3-3-/-5-|
-0-0-0--8--8-\-7-0-0-0-7-7-\-5-0-0-0-5-5-\-3-1-1-1-1-1-/-3-|
-0-0-0-----------0-0-0---------0-0-0-----------------------|

outro chorus cont (dist)
-----------------------------------------------------------|
-----------------------------------------------------------|
-----------------------------------------------------------|
-------10-10-\-9-------9-9-\-7-------7-7-\-5-3-3-3-3-3-/-5-|
-0-0-0--8--8-\-7-0-0-0-7-7-\-5-0-0-0-5-5-\-3-1-1-1-1-1-/-3-|
-0-0-0-----------0-0-0---------0-0-0-----------------------|

outro chorus cont (dist)
-----------------------------------------------------------|
-----------------------------------------------------------|
-----------------------------------------------------------|
-------10-10-\-9-------9-9-\-7-------7-7-\-5-3-3-3-3-3-/-5-|
-0-0-0--8--8-\-7-0-0-0-7-7-\-5-0-0-0-5-5-\-3-1-1-1-1-1-/-3-|
-0-0-0-----------0-0-0---------0-0-0-----------------------|

outro 2 (dist)
---
-1-
-3-
-3-
-1-
---
Suggest correction
Creating personal tab
Creating personal tab
You can edit any tab online and save it as your Personal.

You can edit, replace or remove any tab part or add personal notes – all changes will be seen only by you.

Personal tabs can be accessed anytime from any device, even offline.
Learn more »
comments
print report bad tab
5 comments total. Showing first comments.
0 reply
sonyashadron 10 Dec 30, 2006 06:54 PM

for some reason some dumbass came on the first like 6 songs and gave this kid a bad grade and these are perfect try them

0 reply
sueycide 10 May 28, 2007 05:37 AM

Yea this is a perfect 5.

0 reply
thedemonologist 10 Sep 11, 2007 09:06 PM

I definetly agree, I haven't had a problem with it at all.

guest
You may want to rate the tab now too:
select rating
Wanna post a correction for this tab? Suggest correction