Oops, an error
Loading. Please wait.

Love-Hate-Sex-Pain Tab

version 1
version 1

Acoustic

  • Wrote this acoustic version myself. I don't know i... Show more

Whole song

  • Intro and chorus changed to include an open d note... Show more

Interactive

10 views 1 this week
no commentswrite comment
1 2 3 4 5
2 more votes to show rating
add to favorites
launch autoscroll
font size
0
reset
how to read this tab
guitar tuner
Autoscroll
slow
fast
+/-
esc
set tempo
stop
Help us to improve Ultimate-Guitar.com Take our survey!
×
Difficulty
Tuning
novice
D A D G B E
About this tab version
Wrote this acoustic version myself. I don't know if Godsmack has ever done an acoustic version of this song. It's my first ever tab so. Was this info helpful? Yes No
  Dm 
e|-1-|
B|-3-|
G|-2-|
D|-0-|
A|-0-|
D|-0-|




INTRO
e|-1-------1-1----1----1-1-----0-----0-0---x-x-0--0-x-x-0--0--xxxx---|
B|-3-------3-3----3----3-3-----0-----0-0---x-x-0--0-x-x-0--0--xxxx---|
G|-2-------2-2----2----2-2-----1-----1-1---x-x-1--1-x-x-1--1--xxxx---|
D|-0-------0-0----0----0-0-----2-----2-2---x-x-2--2-x-x-2--2--xxxx---|
A|-0-------0-0----0----0-0-----2-----2-2---x-x-2--2-x-x-2--2--xxxx---|
D|-0-------0-0----0----0-0-----2-----2-2---x-x-2--2-x-x-2--2--xxxx---|

e|-1----------------------------0---------------------------------------|
B|-3----------------------------0---------------------------------------|
G|-2----------------------------1---------------------------------------|
D|-0----------------------------2---------------------------------------|
A|-0----------------------------2---------------------------------------|
D|-0----------------------------2---------------------------------------|
       In this life im just me  sitting here alone

e|----1------------------------------0---------------------------|
B|----3------------------------------0---------------------------|
G|----2------------------------------1---------------------------|
D|----0------------------------------2---------------------------|
A|----0------------------------------2---------------------------|
D|----0------------------------------2---------------------------|
  and by the way i tried to say id be there for you

that repeats

play intro for chorus and solo


e|---------------------------------------------------------------|
B|---------------------------------------------------------------|
G|---------------------------------------------------------------|
D|--8-------------7----------8------------7----------------------|
A|--8-------------7----------8------------7----------------------|
D|--8-------------7----------8------------7----------------------|
       dont you worry please   dont you leave me because
e|-1---------------------------------------------------1---------|
B|-3---------------------------------------------------3---------|
G|-2---------------------------------------------------2---------|
D|-0---3-----------8---------------7-------------------0---------|
A|-0---3-----------8---------------7-------------------0---------|
D|-0---3-----------8---------------7-------------------0---------|
  I       surely slip away through love hate sex and pain

e|---------------------------------------------------------------|
B|---------------------------------------------------------------|
G|---------------------------------------------------------------|
D|---3-------8-------7-7--7-7--7---7-7-7-------------------------|
A|---3-------8-------7-7--7-7--7---7-7-7-------------------------|
D|---3-------8-------7-7--7-7--7---7-7-7-------------------------|
    I fall away into love hate sex and pain

*************************
| x  mute
*************************
Suggest correction
Give kudos to tab author, rate the tab!
1 2 3 4 5
comments
print report bad tab
guest
You may want to rate the tab now too:
select rating
Wanna post a correction for this tab? Suggest correction