Oops, an error
Loading. Please wait.

Love-Hate-Sex-Pain Tab

version 3
version 3

Whole song

  • Intro and chorus changed to include an open d note... Show more

Interactive

16 views 3 this week
no commentswrite comment
1 2 3 4 5
2 more votes to show rating
add to favorites
launch autoscroll
font size
0
reset
how to read this tab
guitar tuner
Autoscroll
slow
fast
+/-
esc
set tempo
stop
Help us to improve Ultimate-Guitar.com Take our survey!
×
Author
Difficulty
Tuning
intermediate
D A D G B E
About this tab version
Intro and chorus changed to include an open d note and changes to include less of a stretch from other versions. Was this info helpful? Yes No
[Intro/Chorus] (x2)

e|--------------------------------------------------------|
B|--------------------------------------------------------|
G|--2---------------------2-------------------------------|
D|---3-----2h3-0-2h3p2------3----2h3-0-2h3p2--------------|
A|--------------------------------------------------------|
D|0-----00--------------0-----00--------------------------|
        PM                    PM
      

e|--------------------------------------------------------|
B|--------------------------------------------------------|
G|--1----------------------1------------------------------|
D|----2------0-2p0-0-22------2---0-2p0-2h3p2-0------------|
A|--------------------------------------------------------|
D|0-----00--------------0-----00--------------------------|
        PM                    PM

         
[verse] (x3)
e|--------------------------------------------------------|
B|---3---3----3---3---------------------------------------|
G|---2---2----2---2---------------------------------------|
D|-0-0---0-0--0-0-0--222222222/333/55---------------------|
A|-0-0-0-0-0--0-0-0--222222222/333/55---------------------|
D|-0-0-0-0-0--0-0-0--222222222/333/55---------------------|

e|--------------------------------------------------------|
B|---3---3----3---3---------------------------------------|
G|---2---2----2---2---------------------------------------|
D|-0-0---0-0--0-0-0--222222222/888\77---------------------|
A|-0-0-0-0-0--0-0-0--222222222/888\77---------------------|
D|-0-0-0-0-0--0-0-0--222222222/888\77---------------------|
         
[Bridge Riff 1] (x2) (Don't you worry please)
         
e|-----------------------------------------|
B|-----------------------------------------|
G|-----------------------------------------|
D|8888888\777777---------------------------|
A|8888888\777777---------------------------|
D|8888888\777777---------------------------|

[Bridge Riff 2] (x2) (Because I slowly)

e|-----------------------------------------|
B|--33--33---------------------------------|
G|--22--22---------------------------------|
D|00000000-333333/888888\777777------------|
A|00000000-333333/888888\777777------------|
D|00000000-333333/888888\777777------------|

[Solo] (w/Wah)

e|----------------------------------------------------|
B|---10--------------10---------------9--9--9-9--9--9-|
G|-----10---9h10p9~-----10---9h10p9~---9--9----9--9---|
D|(0)-----0--------0------0----------0--0--0-0--0--0--|
A|----------------------------------------------------|
D|----------------------------------------------------|
 
e|---------------------------10-------------------------------------|
B|---10-----------10-------10---13b-13p10---------------------------|
G|-----10--9h10p9----10--12b---------------12~-10-9~----------9-9br-|
D|(0)-----0------0----------------------------------10-9~-10--------|
A|------------------------------------------------------------------|
D|------------------------------------------------------------------|


***********************************
| /   Slide up
| \   Slide down
| h   Hummer-on
| p   Pull-off
| ~   vibrato
| b   Bend
| br  Bend release
| PM  Palm Mute
***********************************

Note: While this is not the way Rambola plays it, it's my personal preference.

         
         


Suggest correction
Give kudos to tab author, rate the tab!
1 2 3 4 5
comments
print report bad tab
guest
You may want to rate the tab now too:
select rating
Wanna post a correction for this tab? Suggest correction