Oops, an error
Loading. Please wait.

Mama tab

version 1
version 1

Whole song

Interactive

7,343 views 1 this week
3 commentsread comments
1 2 3 4 5
1 last vote to show rating
add to favorites
×
Save as Personal and add changes to this tab that will be seen only by you. Learn more ›
×
You can save this tab as Personal to edit and correct it or add notes. All changes will be seen only by you. Learn more »
launch autoscroll
font size
0
reset
how to read this tab
guitar tuner
edit
Autoscroll
slow
fast
+/-
esc
set tempo
stop
Author
Difficulty
Band- Godsmack
Song- Mama
Album- IV (2006)
Tuning- DADGBE

Here's everything, but the main solo and the very end solo. Other than that, everything else is here.

Intro- Clean
|-----------------------------------|
|-----------------------------------|
|---------------------------------0-|
|---2---2---3---2---------2---2-----|
|-0---0---0---0---0-3-0-3---3---3---|
|-----------------------------------|

Intro Solo- Distortion
|-----------------------------------------------|
|-----------------------------------------------|
|-9p7----------------------------------------12-|
|-----10p7-----7-10-7-10-10/12---12-12-12h14----|
|-----------10----------------------------------|
|-----------------------------------------------|

|--------------------------------------|
|--------------------------------------|
|-------12----14^--12-14-12------12-14-|
|-12-14----14-----------------14-------|
|--------------------------------------|
|--------------------------------------|

Verse- Clean
|-----------------------------------|
|-----------------------------------|
|---------------------------------0-|
|---2---2---3---2---------2---2-----|
|-0---0---0---0---0-3-0-3---3---3---|
|-----------------------------------|

|-------------------------------------------------|
|-------------------------------------------------|
|-------------------------------------------------|
|---2---2---3---2---------2---2-------3---5p3-----|
|-0---0---0---0---0-3-0-3---3---3-3-5---5-----5p3-|
|-------------------------------------------------|

Pre-Chorus- Distortion
|----------------------------------|
|----------------------------------|
|----------------------------------|
|-10/--2-2-2-0-0-0-0-3-3-3-5-5-5-5-|
|-10/--2-2-2-0-0-0-0-3-3-3-5-5-5-5-|
|-10/--2-2-2-0-0-0-0-3-3-3-5-5-5-5-|

Chorus
|----------------------------------------------------|
|----------------------------------------------------|
|-------------------------------------10-10-10-9-9-9-|
|-------------------------------------x--x--x--x-x-x-|
|-7-7-10p7-7-7-7-10p7-7-7-10-10-10-10-8--8--8--7-7-7-|
|-7-7-10p7-7-7-7-10p7-7-7-10-10-10-10----------------|

|-------------------------------------------------|
|-------------------------------------------------|
|-------------------------------------------------|
|-------------------------------------3-3-3-2-2-2-|
|-7-7-10p7-7-7-7-10p7-7-7-10-10-10-10-3-3-3-2-2-2-|
|-7-7-10p7-7-7-7-10p7-7-7-10-10-10-10-3-3-3-2-2-2-|

|----------------------------------------------------|
|----------------------------------------------------|
|-------------------------------------10-10-10-9-9-9-|
|-------------------------------------x--x--x--x-x-x-|
|-7-7-10p7-7-7-7-10p7-7-7-10-10-10-10-8--8--8--7-7-7-|
|-7-7-10p7-7-7-7-10p7-7-7-10-10-10-10----------------|

|----------------------------------------|
|----------------------------------------|
|----------------------------------------|
|-------------------------------------3~-|
|-7-7-10p7-7-7-7-10p7-7-7-10-10-10-10-3~-|
|-7-7-10p7-7-7-7-10p7-7-7-10-10-10-10-3~-|

Second Solo- Distortion
|------------------------------------------|
|------------------------------------------|
|----12-14~--14-14-12------------12--------|
|-14-------------------15-14--14----13^-12-|
|------------------------------------------|
|------------------------------------------|

|--------------------------------------|
|--------------------------------------|
|-5---------------------------5--------|
|---7-5---5-7-5~------5---7-----7-5-7~-|
|-------7---------5-7---7---7----------|
|--------------------------------------|
P.M.              ...........

Play Verse

Play Pre-Chorus

Play Chorus w/ this variation at the end
|-------------------------------------------------|
|-------------------------------------------------|
|-------------------------------------------------|
|-------------------------------------3-3-3-2-2-2-|
|-7-7-10p7-7-7-7-10p7-7-7-10-10-10-10-3-3-3-2-2-2-|
|-7-7-10p7-7-7-7-10p7-7-7-10-10-10-10-3-3-3-2-2-2-|

Bridge
|----------------------------|
|-------------------------3~-|
|-------------------------2~-|
|-0-------0-0---------0---0~-|Repeat many times
|-0-------0-0---------0---0~-|
|-0-0-000-0-0-0-000-0-0-0-0~-|
P.M......     .......   .

2nd Guitar during Main Solo

Play Verse

Play Pre-Chorus

Play Chorus w/ Variation

Play Bridge until end and fade out.....

Thta's all for now. Enjoy!

            
            
Suggest correction
Creating personal tab
Creating personal tab
You can edit any tab online and save it as your Personal.

You can edit, replace or remove any tab part or add personal notes – all changes will be seen only by you.

Personal tabs can be accessed anytime from any device, even offline.
Learn more »
Give kudos to tab author, rate the tab!
1 2 3 4 5
comments
print report bad tab
3 comments total.
0 reply
Ceresz 70 Jun 25, 2006 09:06 AM

Awesome, I have been waiting for this :D (Picks up guitar and starts practicing).

0 reply
linkinpark4321 10 Nov 27, 2006 12:29 PM

wow this tab is not that good iam not trying to be mean go to the other mama tab taht has 5 stars its perfect it sounds so good on the guitar

0 reply
Andrew Zara 41,519 Nov 30, 2006 10:09 AM

^that's why he copyed the solos I tabbed into his tab right? We have almost the exact same tab except he changed a few parts.

guest
You may want to rate the tab now too:
select rating
Wanna post a correction for this tab? Suggest correction