Oops, an error
Loading. Please wait.

Mama tab

version 2
version 2

Whole song

Interactive

1,415 views 1 this week
2 commentsread comments
1 2 3 4 5
1 last vote to show rating
add to favorites
×
Save as Personal and add changes to this tab that will be seen only by you. Learn more ›
×
You can save this tab as Personal to edit and correct it or add notes. All changes will be seen only by you. Learn more »
launch autoscroll
font size
0
reset
how to read this tab
guitar tuner
edit
Autoscroll
slow
fast
+/-
esc
set tempo
stop
-----------------------------------------------------------------------------
                             Mama - Godsmack
-----------------------------------------------------------------------------
Tabbed by: Craig
Email: propheticchoice@aol.com

Tuning: DADGBe

This is just the rhythm part of the song, so don't expect any leads or solos.

Verse: Clean w/chorus
e|---------------------------------------------------------------------------|
B|---------------------------------------------------------------------------|
G|-----------------------------------0---------------------------------------|
D|---2---2---3---2---2--0----2---2-------------------------------------------|
A|-0---0---0---0---0----0--3---3---3-----------------------------------------|
E|---------------------------------------------------------------------------|

e|---------------------------------------------------------------------------|
B|---------------------------------------------------------------------------|
G|-----------------------------------0---------------------------------------|
D|---2---2---3---2---2--0----2---2-------------------------------------------|
A|-0---0---0---0---0----0--3---3---3-----------------------------------------|
E|---------------------------------------------------------------------------|

e|---------------------------------------------------------------------------|
B|---------------------------------------------------------------------------|
G|-----------------------------------0---------------------------------------|
D|---2---2---3---2---2--0----2---2-------------------------------------------|
A|-0---0---0---0---0----0--3---3---3-----------------------------------------|
E|---------------------------------------------------------------------------|

e|---------------------------------------------------------------------------|
B|----------------------------------------0---2p0----------------------------|
G|--------------------------------------0---0-----0--------------------------|
D|---2---2---3---2---2--0----2---2------------------0------------------------|
A|-0---0---0---0---0----0--3---3---0-----------------------------------------|
E|------------------------------------5--------------------------------------|

Pre-Chorus: w/distortion
e|---------------------------------------------------------------------------|
B|---------------------------------------------------------------------------|
G|---------------------------------------------------------------------------|
D|-2--2--3-3--2---2-0-0-0--2-2/3--3-3-3-3--5-5-5-5-5-------------------------|
A|-2--2--3-3--2---2-0-0-0--2-2/3--3-3-3-3--5-5-5-5-5-------------------------|
E|-2--2--3-3--2---2-0-0-0--2-2/3--3-3-3-3--5-5-5-5-5-------------------------|
         x x
e|---------------------------------------------------------------------------|
B|---------------------------------------------------------------------------|
G|---------------------------------------------------------------------------|
D|-2--2--2-2--2---2-0-0-0--2-2/3--3-3-3-3--5-5-5-5-5-------------------------|
A|-2--2--2-2--2---2-0-0-0--2-2/3--3-3-3-3--5-5-5-5-5-------------------------|
E|-2--2--2-2--2---2-0-0-0--2-2/3--3-3-3-3--5-5-5-5-5-------------------------|
         x x

Chorus
e|---------------------------------------------------------------------------|
B|---------------------------------------------------------------------------|
G|-2-2-----2-2-2-----2--5--5-5-5-5---10-10-10/9-9----------------------------|
D|-2-2-----2-2-2-----2--5--5-5-5-5---x--x--x-/x-x----------------------------|
A|-0-0-3p0-0-0-0-3p0-0--3--3-3-3-3---8--8--8-/7-7----------------------------|
E|---------------------------------------------------------------------------|

e|---------------------------------------------------------------------------|
B|---------------------------------------------------------------------------|
G|-2-2-----2-2-2-----2--5--5-5-5-5-------------------------------------------|
D|-2-2-----2-2-2-----2--5--5-5-5-5---3-3-3/2-2p0-----------------------------|
A|-0-0-3p0-0-0-0-3p0-0--3--3-3-3-3---3-3-3/2-2p0-----------------------------|
E|-----------------------------------3-3-3/2-2p0-----------------------------|

Bridge:
e|---------------------------------------------------------------------------|
B|---------------------------------------------------------------------------|
G|------------------------------------------8--8-------8--8------------------|
D|-0--0-0-0-0-0-0--0--0--0-0--0--0-0-0-0-0--7--7--0-0--7--7--0-0-------------|
A|-0--0-0-0-0-0-0--0--0--0-0--0--0-0-0-0-0--6--6--0-0--6--6--0-0-------------|
E|-0--0-0-0-0-0-0--0--0--0-0--0--0-0-0-0-0--------0-0--------0-0--12/--------|
      x x x x x x        x x     x x x x x        x x        x x

Well, that's the way I play it. It may not be perfect, but it sounds pretty damned close 
me. Enjoy.

| /  slide up
| \  slide down
| h  hammer-on
| p  pull-off
| ~  vibrato
| +  harmonic
| x  Mute note
=============================================================================
Suggest correction
Creating personal tab
Creating personal tab
You can edit any tab online and save it as your Personal.

You can edit, replace or remove any tab part or add personal notes – all changes will be seen only by you.

Personal tabs can be accessed anytime from any device, even offline.
Learn more »
Give kudos to tab author, rate the tab!
1 2 3 4 5
comments
print report bad tab
2 comments total.
0 reply
Andrew Zara 41,519 Nov 20, 2006 09:47 AM

Looks better then mine to be honest with you(version 1). But you should add the leads. If you want you could use mine, I think it's correct.

0 reply
linkinpark4321 10 Nov 27, 2006 12:30 PM

this guitar tab is not 100% correct this one sucks this is all wrong wrong

guest
You may want to rate the tab now too:
select rating
Wanna post a correction for this tab? Suggest correction