Oops, an error
Loading. Please wait.

Mistakes Tab

version 4
version 4

Whole song

Interactive

6,631 views 6 this week
4 commentsread comments
1 2 3 4 5
excellent!
x 6
add to favorites
launch autoscroll
font size
0
reset
how to read this tab
guitar tuner
Tab Pro tools
  • play this tab
  • loop segment
  • change instrument
  • show fretboard
  • metronome
×
Best way to learn
"Mistakes"
Autoscroll
slow
fast
+/-
esc
set tempo
stop
Contributor
Band- Godsmack
Song- Mistakes
Album- Awake

 D5open                 Eb5                  F5                   G5
      0 0 0 x x x          1 1 1 x x x          3 3 x x x x          5 5 x x x x

          G#5                  Bb5                  C5                   D5
      6 6 x x x x          8 8 x x x x         10 10 x x x x        12 12 x x x x

        Eb5XIII               F5XV
     13 13 x x x x        15 15 x x x x

Gtr I (C G C F A D) - 'Tony Rombola'
Gtr II (C G C F A D) - 'Tony Rombola'
Gtr III (C G C F A D) - 'Tony Rombola Wah'

   Intro
    Q=128
    N.C.
   4/4
    Gtr I
     E   E  E  E  E  E  E  E
||---------------------------|
||o--------------------------|
||---------------------------|
||---------------------------|
||o--------------------------|
||--15---0-13--0-10-12-13-12-|
|
|   Gtr III
|    Q     +H.
||---------------------------|
||o--------------------------|
||---2b3---(2)---------------|
||---------------------------|
||o--------------------------|
||---------------------------|


   +E  E  E E  E  E  E  E    E  E  E E  E  E  E  E
|-------------------------|------------------------|
|-------------------------|------------------------|
|-------------------------|------------------------|
|-------------------------|------------------------|
|-------------------------|------------------------|
|-(12)-0-15-0-13-12-10-12-|-15--0-13-0-10-12-13-12-|
|
|   ~~~~~~~~~~~~~~~~~~~~~~~~~~~~
|   W                       +W
|-------------------------|------------------------|
|-------------------------|------------------------|
|--[2]--------------------|-(2)--------------------|
|-------------------------|------------------------|
|-------------------------|------------------------|
|-------------------------|------------------------|


   +E  E  E E  E  E  Q    3x  E E  E E  E  E  E  E    +E  E  E E  E  E  E  E
|-------------------------||-----------------------|-------------------------|
|------------------------o||-----------------------|-------------------------|
|-------------------------||-----------------------|-------------------------|
|-------------------------||-----------------------|-------------------------|
|------------------------o||-----------------------|-------------------------|
|-(12)-0-15-0-13-12-10/---||-15-0-13-0-10-12-13-12-|-(12)-0-15-0-13-12-10-12-|


                     C5
  Gtr I
   E E  E E  E  E  E  E    +W            +W
|-----------------------|-------------|------------------------||
|-----------------------|-------------|------------------------||
|-----------------------|-------------|------------------------||
|-----------------------|-------------|------------------------||
|--------------------10-|-(10)--------|-(10)-------------------||
|-15-0-13-0-10-12-13-10-|-(10)--------|-(10)-------------------||
|
| Gtr II
|                                         |----3----|
|  H         Q     E  E    +W            +Q   +Q   +Q   +H
|-----------------------|-------------|------------------------||
|-----------------------|-------------|------------------------||
|-----------------------|-------------|------------------------||
|-----------------------|-------------|------------------------||
|--------------------10-|-(10)--------|-(10)-(10)-(10)-(10)----||
|--------------------10-|-(10)--------|-(10)-(10)-(10)-(10)----||


    F5XD5Eb5D5C5eD5 Eb5D5II      D5F5XD5Eb5D5IC5 Eb5XIII
    Gtrs I, II
     E E  E E  E  E  E  E    +E  E  E E  E  E  E  E
||------------------------|-------------------------|
||o-----------------------|-------------------------|
||------------------------|-------------------------|
||------------------------|-------------------------|
||o-15-0-13-0-10-12-13-12-|-(12)-0-15-0-13-12-10-12-|
||--15-0-13-0-10-12-13-12-|-(12)-0-15-0-13-12-10-12-|


  F5XD5Eb5D5C5eD5 Eb5D5II      D5F5XD5Eb5D5IC5
   E E  E E  E  E  E  E    +E  E  E E  E  E  Q
|-----------------------|------------------------||
|-----------------------|-----------------------o||
|-----------------------|------------------------||
|-----------------------|------------------------||
|-15-0-13-0-10-12-13-12-|-(12)-0-15-0-13-12-10--o||
|-15-0-13-0-10-12-13-12-|-(12)-0-15-0-13-12-10---||


 Verse
  D5open                  C5      Bb5    D5open
  E E E E E E E E   E E E  E  +E  E Q    E E E E E E E E
|-----------------|--------------------|-----------------|
|-----------------|--------------------|-----------------|
|-----------------|--------------------|-----------------|
|-----------------|--------------------|-----------------|
|-0-0-0-0---0-0-0-|---0-0-10-(10)-8-8--|-0-0-0-0---0-0-0-|
|-0-0-0-0---0-0-0-|---0-0-10-(10)-8-8--|-0-0-0-0---0-0-0-|


        C5      Bb5    D5open                  C5      Bb5
  E E E  E  +E  E Q    E E E E E E E E   E E E  E  +E  E Q
|--------------------|-----------------|--------------------|
|--------------------|-----------------|--------------------|
|--------------------|-----------------|--------------------|
|--------------------|-----------------|--------------------|
|---0-0-10-(10)-8-8--|-0-0-0-0---0-0-0-|---0-0-10-(10)-8-8--|
|---0-0-10-(10)-8-8--|-0-0-0-0---0-0-0-|---0-0-10-(10)-8-8--|


  D5open                  C5      Bb5    F5
  E E E E E E E E   E E E  E  +E  E Q    W          +W
|-----------------|--------------------|----------|--------||
|-----------------|--------------------|----------|--------||
|-----------------|--------------------|----------|--------||
|-----------------|--------------------|----------|--------||
|-0-0-0-0---0-0-0-|---0-0-10-(10)-8-8--|-3--------|-(3)----||
|-0-0-0-0---0-0-0-|---0-0-10-(10)-8-8--|-3--------|-(3)----||


 Interlude
  N.C.
   E E  E E  E  E  E  E    +E  E  E E  E  E  E  E
|-----------------------|-------------------------|
|-----------------------|-------------------------|
|-----------------------|-------------------------|
|-----------------------|-------------------------|
|-----------------------|-------------------------|
|-15-0-13-0-10-12-13-12-|-(12)-0-15-0-13-12-10-12-|


   E E  E E  E  E  E  E    +E  E  E E  E  E  Q
|-----------------------|-------------------------|
|-----------------------|-------------------------|
|-----------------------|-------------------------|
|-----------------------|-------------------------|
|-----------------------|-------------------------|
|-15-0-13-0-10-12-13-12-|-(12)-0-15-0-13-12-10/---|


  F5 D5Eb5D5C5 D5 Eb5D5          F5 D5Eb5D5 C5 D5
  Gtrs I, II
   E E  E E  E  E  E  E    +E  E  E E  E  E  E  E
|-----------------------|-------------------------|
|-----------------------|-------------------------|
|-----------------------|-------------------------|
|-----------------------|-------------------------|
|-15-0-13-0-10-12-13-12-|-(12)-0-15-0-13-12-10-12-|
|-15-0-13-0-10-12-13-12-|-(12)-0-15-0-13-12-10-12-|
|
| Gtr III
|  TP                       TP
|  W                        W
|-----------------------|-------------------------|
|-----------------------|-------------------------|
|--7--------------------|---7---------------------|
|--x--------------------|---x---------------------|
|--5--------------------|---5---------------------|
|-----------------------|-------------------------|


  F5 D5Eb5D5C5 D5 Eb5D5          F5 D5Eb5D5 C5
   E E  E E  E  E  E  E    +E  E  E E  E  E  Q
|-----------------------|------------------------||
|-----------------------|------------------------||
|-----------------------|------------------------||
|-----------------------|------------------------||
|-15-0-13-0-10-12-13-12-|-(12)-0-15-0-13-12-10---||
|-15-0-13-0-10-12-13-12-|-(12)-0-15-0-13-12-10---||
|
|  TP                       TP
|  W                        W
|-----------------------|------------------------||
|-----------------------|------------------------||
|--7--------------------|---7--------------------||
|--x--------------------|---x--------------------||
|--5--------------------|---5--------------------||
|-----------------------|------------------------||


   Verse
    D5open                  C5      Bb5    D5open
    E E E E E E E E   E E E  E  +E  E Q    E E E E E E E E
||------------------|--------------------|-----------------|
||o-----------------|--------------------|-----------------|
||------------------|--------------------|-----------------|
||------------------|--------------------|-----------------|
||o-0-0-0-0---0-0-0-|---0-0-10-(10)-8-8--|-0-0-0-0---0-0-0-|
||--0-0-0-0---0-0-0-|---0-0-10-(10)-8-8--|-0-0-0-0---0-0-0-|


        C5      Bb5    D5open                  C5      Bb5
  E E E  E  +E  E Q    E E E E E E E E   E E E  E  +E  E Q
|--------------------|-----------------|--------------------|
|--------------------|-----------------|--------------------|
|--------------------|-----------------|--------------------|
|--------------------|-----------------|--------------------|
|---0-0-10-(10)-8-8--|-0-0-0-0---0-0-0-|---0-0-10-(10)-8-8--|
|---0-0-10-(10)-8-8--|-0-0-0-0---0-0-0-|---0-0-10-(10)-8-8--|


  D5open                  C5      Bb5
  E E E E E E E E   E E E  E  +E  E Q
|-----------------|---------------------||
|-----------------|--------------------o||
|-----------------|---------------------||
|-----------------|---------------------||
|-0-0-0-0---0-0-0-|---0-0-10-(10)-8-8--o||
|-0-0-0-0---0-0-0-|---0-0-10-(10)-8-8---||


 Chorus
  G5                        G#5 F5  D5opG5                        G#5 F5  D5open
  Gtrs I, II
  E E E E E E E E   +E  E E E E E E E   E E E E E E E E   +E  E E E E E E E
|-----------------|-------------------|-----------------|--------------------|
|-----------------|-------------------|-----------------|--------------------|
|-----------------|-------------------|-----------------|--------------------|
|-----------------|-------------------|-----------------|--------------------|
|-5-5-5-5-5-5-5-5-|-(5)-5-5-6-6-3-3-0-|-5-5-5-5-5-5-5-5-|-(5)-5-5-6-6-3-3-0--|
|-5-5-5-5-5-5-5-5-|-(5)-5-5-6-6-3-3-0-|-5-5-5-5-5-5-5-5-|-(5)-5-5-6-6-3-3-0--|


  N.C.
   E E  E E  E  E  E  E    +E  E  E E  E  E  E  E
|-----------------------|-------------------------|
|-----------------------|-------------------------|
|-----------------------|-------------------------|
|-----------------------|-------------------------|
|-----------------------|-------------------------|
|-15-0-13-0-10-12-13-12-|-(12)-0-15-0-13-12-10-12-|


   E E  E E  E  E  E  E    +E  E  E E  E  E  Q
|-----------------------|-------------------------|
|-----------------------|-------------------------|
|-----------------------|-------------------------|
|-----------------------|-------------------------|
|-----------------------|-------------------------|
|-15-0-13-0-10-12-13-12-|-(12)-0-15-0-13-12-10/---|


  G5                        G#5 F5  D5opG5                  G#5  Bb5  G#5  G5
  Gtrs I, II, III
  E E E E E E E E   +E  E E E E E E E   E E E E E E E E   E  E E  E E  E E  E
|-----------------|-------------------|-----------------|----------------------|
|-----------------|-------------------|-----------------|----------------------|
|-----------------|-------------------|-----------------|----------------------|
|-----------------|-------------------|-----------------|----------------------|
|-5-5-5-5-5-5-5-5-|-(5)-5-5-6-6-3-3-0-|-5-5-5-5-5-5-5-5-|-5-/6-6-/8-8-\6-6-\5--|
|-5-5-5-5-5-5-5-5-|-(5)-5-5-6-6-3-3-0-|-5-5-5-5-5-5-5-5-|-5-/6-6-/8-8-\6-6-\5--|


  N.C.
  Gtrs I, II
   E E  E E  E  E  E  E    +E  E  E E  E  E  E  E
|-----------------------|-------------------------|
|-----------------------|-------------------------|
|-----------------------|-------------------------|
|-----------------------|-------------------------|
|-----------------------|-------------------------|
|-15-0-13-0-10-12-13-12-|-(12)-0-15-0-13-12-10-12-|


   E E  E E  E  E  E  E    +E  E  E E  E  E  Q
|-----------------------|-------------------------|
|-----------------------|-------------------------|
|-----------------------|-------------------------|
|-----------------------|-------------------------|
|-----------------------|-------------------------|
|-15-0-13-0-10-12-13-12-|-(12)-0-15-0-13-12-10/---|


  F5 D5Eb5D5C5 D5 Eb5D5          F5 D5Eb5D5 C5 D5
   E E  E E  E  E  E  E    +E  E  E E  E  E  E  E
|-----------------------|-------------------------|
|-----------------------|-------------------------|
|-----------------------|-------------------------|
|-----------------------|-------------------------|
|-15-0-13-0-10-12-13-12-|-(12)-0-15-0-13-12-10-12-|
|-15-0-13-0-10-12-13-12-|-(12)-0-15-0-13-12-10-12-|


  F5 D5Eb5D5C5 D5 Eb5D5          F5 D5Eb5D5 C5
   E E  E E  E  E  E  E    +E  E  E E  E  E  Q
|-----------------------|------------------------|
|-----------------------|------------------------|
|-----------------------|------------------------|
|-----------------------|------------------------|
|-15-0-13-0-10-12-13-12-|-(12)-0-15-0-13-12-10---|
|-15-0-13-0-10-12-13-12-|-(12)-0-15-0-13-12-10---|


  Eb5
                                             <
                           PM------------|
  W          Q  Q  Q  Q    E E E E E E E E   E E E E E E E E
|----------|-------------|-----------------|------------------||
|----------|-------------|-----------------|------------------||
|----------|-------------|-----------------|------------------||
|-1--------|-1-----1-----|-----------------|-1-1-1-1-1-1-1-1--||
|-1--------|-1--1--1--1--|-----------------|-1-1-1-1-1-1-1-1--||
|-1--------|-1--1--1--1--|-1-1-1-1-1-1-1-1-|-1-1-1-1-1-1-1-1--||


 Interlude
  N.C.
  Gtr I
   E E E  E E E  E E   E  E E E  E E  E E
|--------------------|--------------------|
|--------------------|--------------------|
|--------------------|--------------------|
|--------------------|--------------------|
|--------------------|--------------------|
|-12-0-0-13-0-0-12-0-|-0-13-0-0-12-0-10-0-|
|
| Gtrs II, III
|  W                   W
|--------------------|--------------------|
|--------------------|--------------------|
|--------------------|--------------------|
|--------------------|--------------------|
|--------------------|--------------------|
|--------------------|--------------------|


                                     D5
   E E E  E E E  E E   E  E E E  E E  E  E
|--------------------|----------------------|
|--------------------|----------------------|
|--------------------|----------------------|
|--------------------|----------------------|
|--------------------|----------------------|
|-12-0-0-13-0-0-12-0-|-0-13-0-0-12-0-10--0--|
|
|  W                   H         Q    Q
|--------------------|----------------------|
|--------------------|----------------------|
|--------------------|----------------------|
|--------------------|----------------------|
|--------------------|---------------12\----|
|--------------------|---------------12\----|


    N.C.
     PM--------------------------------------
     E E E  E E E  E E   E  E E E  E E  E E
||---------------------|--------------------|
||o--------------------|--------------------|
||---------------------|--------------------|
||---------------------|--------------------|
||o--------------------|--------------------|
||--12-0-0-13-0-0-12-0-|-0-13-0-0-12-0-10-0-|


 ---------------------------------------|
   E E E  E E E  E E   E  E E E  E E  E E
|--------------------|---------------------||
|--------------------|--------------------o||
|--------------------|---------------------||
|--------------------|---------------------||
|--------------------|--------------------o||
|-12-0-0-13-0-0-12-0-|-0-13-0-0-12-0-10-0--||


  D5       Eb5D5               Eb5D5       C5
  Gtrs I, II
   E S S E  E S S E  E S S   E  E E E  E E  E E
|--------------------------|--------------------|
|--------------------------|--------------------|
|--------------------------|--------------------|
|--------------------------|--------------------|
|-12-0-0-0-13-0-0-0-12-0-0-|-0-13-0-0-12-0-10-0-|
|-12-0-0-0-13-0-0-0-12-0-0-|-0-13-0-0-12-0-10-0-|


    D5       Eb5D5
     E S S E  E S S E  E S S   E  E E E  E E  E E
||---------------------------|--------------------|
||o--------------------------|--------------------|
||---------------------------|--------------------|
||---------------------------|--------------------|
||o-12-0-0-0-13-0-0-0-12-0-0-|-0-13-0-0-12-0-10-0-|
||--12-0-0-0-13-0-0-0-12-0-0-|-0-13-0-0-12-0-10-0-|


  D5     Eb5D5           Eb5D5       C5
   E E E  E E E  E E   E  E E E  E E  Q    3x
|--------------------|---------------------||
|--------------------|--------------------o||
|--------------------|---------------------||
|--------------------|---------------------||
|-12-0-0-13-0-0-12-0-|-0-13-0-0-12-0-10\--o||
|-12-0-0-13-0-0-12-0-|-0-13-0-0-12-0-10\---||


  D5     Eb5D5           Eb5D5       C5
   E E E  E E E  E E   E  E E E  E E  Q
|--------------------|--------------------|
|--------------------|--------------------|
|--------------------|--------------------|
|--------------------|--------------------|
|-12-0-0-13-0-0-12-0-|-0-13-0-0-12-0-10---|
|-12-0-0-13-0-0-12-0-|-0-13-0-0-12-0-10---|


  N.C.
   PM--------------------------------------
   E E E  E E E  E E   E  E E E  E E  E E
|--------------------|--------------------|
|--------------------|--------------------|
|--------------------|--------------------|
|--------------------|--------------------|
|--------------------|--------------------|
|-12-0-0-13-0-0-12-0-|-0-13-0-0-12-0-10-0-|


 ------------------------------------|
   E E E  E E E  E E   E  E E E  E E  Q
|--------------------|---------------------|
|--------------------|---------------------|
|--------------------|---------------------|
|--------------------|---------------------|
|--------------------|---------------------|
|-12-0-0-13-0-0-12-0-|-0-13-0-0-12-0-10\---|


  D5       Eb5D5               Eb5D5       C5 D5             Eb5D5
   E S S E  E S S E  E S S   E  E E E  E E  E E      E S S E  E S S E  E S S
|--------------------------|--------------------||----------------------------|
|--------------------------|--------------------||o---------------------------|
|--------------------------|--------------------||----------------------------|
|--------------------------|--------------------||----------------------------|
|-12-0-0-0-13-0-0-0-12-0-0-|-0-13-0-0-12-0-10-0-||o-12-0-0-0-13-0-0-0-12-0-0--|
|-12-0-0-0-13-0-0-0-12-0-0-|-0-13-0-0-12-0-10-0-||--12-0-0-0-13-0-0-0-12-0-0--|


    Eb5D5       C5 D5         Eb5D5
  E  E E E  E E  E E    E E E  E E E  E E
|--------------------|--------------------|
|--------------------|--------------------|
|--------------------|--------------------|
|--------------------|--------------------|
|-0-13-0-0-12-0-10-0-|-12-0-0-13-0-0-12-0-|
|-0-13-0-0-12-0-10-0-|-12-0-0-13-0-0-12-0-|


 1.,2.                  3.
    Eb5D5       C5       D5Eb5D5       Eb5D5
  E  E E E  E E  Q    3x E  E E E  E E  E E
|---------------------||---------------------|
|--------------------o||---------------------|
|---------------------||---------------------|
|---------------------||---------------------|
|-0-13-0-0-12-0-10\--o||-0-13-0-0-12-0-13-0--|
|-0-13-0-0-12-0-10\---||-0-13-0-0-12-0-13-0--|


         Eb5D5           Eb5D5       Eb5D5         Eb5D5
   E E E  E E E  E E   E  E E E  E E  E E    E E E  E E E  E E
|--------------------|--------------------|--------------------|
|--------------------|--------------------|--------------------|
|--------------------|--------------------|--------------------|
|--------------------|--------------------|--------------------|
|-12-0-0-13-0-0-12-0-|-0-13-0-0-12-0-13-0-|-12-0-0-13-0-0-12-0-|
|-12-0-0-13-0-0-12-0-|-0-13-0-0-12-0-13-0-|-12-0-0-13-0-0-12-0-|


    Eb5D5       Eb5D5         Eb5D5           Eb5D5       Eb5D5
  E  E E E  E E  E E    E E E  E E E  E E   E  E E E  E E  E E
|--------------------|--------------------|--------------------|
|--------------------|--------------------|--------------------|
|--------------------|--------------------|--------------------|
|--------------------|--------------------|--------------------|
|-0-13-0-0-12-0-13-0-|-12-0-0-13-0-0-12-0-|-0-13-0-0-12-0-13-0-|
|-0-13-0-0-12-0-13-0-|-12-0-0-13-0-0-12-0-|-0-13-0-0-12-0-13-0-|


  Eb5
  W          +W           +W           +H.      +Q
|----------|------------|------------|-----------------||
|----------|------------|------------|-----------------||
|----------|------------|------------|-----------------||
|-1--------|-(1)--------|-(1)--------|-(1)------(1)/---||
|-1--------|-(1)--------|-(1)--------|-(1)------(1)/---||
|-1--------|-(1)--------|-(1)--------|-(1)------(1)/---||


   Outro
    N.C.
    Gtr I
     E E E  E E E  E E   E  E E E  E E  E E
||---------------------|--------------------|
||o--------------------|--------------------|
||---------------------|--------------------|
||---------------------|--------------------|
||o--------------------|--------------------|
||--12-0-0-13-0-0-12-0-|-0-13-0-0-12-0-10-0-|


 1.
   E E E  E E E  E E   E  E E E  E E  E E
|--------------------|---------------------||
|--------------------|--------------------o||
|--------------------|---------------------||
|--------------------|---------------------||
|--------------------|--------------------o||
|-12-0-0-13-0-0-12-0-|-0-13-0-0-12-0-10-0--||


  2.
   E E E  E E E  E E   E  E E E  E E  E E    W          W
|--------------------|--------------------|-----------|-0----*|
|--------------------|--------------------|-----------|------*|
|--------------------|--------------------|-----------|------*|
|--------------------|--------------------|-----------|------*|
|--------------------|--------------------|-----------|-0----*|
|-12-0-0-13-0-0-12-0-|-0-13-0-0-12-0-13-0-|-12--------|-0----*|


Duration Legend
---------------
W - whole; H - half; Q - quarter; E - 8th; S - 16th; T - 32nd; X - 64th; a - acciaccatura
+ - note tied to previous; . - note dotted; .. - note double dotted
Uncapitalized letters represent notes that are staccato (1/2 duration)
Irregular groupings are notated above the duration line
Duration letters will always appear directly above the note/fret number it represents the
duration for.  Duration letters with no fret number below them represent rests.  Multi-
bar rests are notated in the form Wxn, where n is the number of bars to rest for.  Low
melody durations appear below the staff

Tablature Legend
----------------
 h   - hammer-on
 p   - pull-off
 b   - bend
 pb  - pre-bend
 r   - bend release (if no number after the r, then release immediately)
 /\  - slide into or out of (from/to "nowhere")
 s   - legato slide
 S   - shift slide
  - natural harmonic
[n]  - artificial harmonic
n(n) - tapped harmonic
 ~   - vibrato
 tr  - trill
 T   - tap
 TP  - trem. picking
 PM  - palm muting
\n/  - tremolo bar dip; n = amount to dip
 \n  - tremolo bar down
 n/  - tremolo bar up
/n\  - tremolo bar inverted dip
 =   - hold bend; also acts as connecting device for hammers/pulls
 <>  - volume swell (louder/softer)
 x   - on rhythm slash represents muted slash
 o   - on rhythm slash represents single note slash

Misc Legend
-----------
 |  - bar
||  - double bar
||o - repeat start
o|| - repeat end
*|  - double bar (ending)
 :  - bar (freetime)
 $  - Segno
 &  - Coda
Tempo markers -  = BPM(8/16=s8/s16), where s8 = swing 8ths, s16 = swing 16ths
comments
print report bad tab
4 comments total. Showing first comments.
0 reply
Mikiep321 wrote on March 25 2005, 12:00 am

great Tab DUDE

0 reply
Ceresz wrote on July 11 2006, 09:16 am

Awesome tab, sounds just as the real deal :D

0 reply
sabata777 wrote on May 1 2007, 02:29 pm

Yeah- damn good tab, but it sound just as good if tune to drop D. Either way- if you have the time to tune to drop C- its a very handy tab- thanks a bunch.

I want to post or [tab]
guest
You may want to rate the tab now too:
select rating
Please do not post tabs as comments. Select "correction" instead!