Oops, an error
Loading. Please wait.

Moon Baby Tab

version 1
version 1

Whole song

Interactive

13,941 views 18 this week
2 commentsread comments
1 2 3 4 5
x 12
add to favorites
launch autoscroll
font size
0
reset
how to read this tab
guitar tuner
Autoscroll
slow
fast
+/-
esc
set tempo
stop
Help us to improve Ultimate-Guitar.com Take our survey!
×
I would like to start off by saying that Godsmack has got to be one of the
greatest bands out there.  Sully is a very talented singer/songwriter/multi
instrumentalist and Tony is a very awesome guitarist.  It's not very often that
you find a contemporary rock band that has really cool guitar solos in nearly
every song.  Unfortunately, Godsmack does not have really awesome solos in every
song, and this is one of those solo-less songs, but it's still really fun to
play, so, here goes.....

Moon Baby
As performed on "Godsmack"

Drop-D tuning
h      hammer on
p      pull off
PM     palm muting
x      muffled strings

Intro (x2) and verse (x4)
e[--------------------------------------------------------
B[--------------------------------------------------------
G[--------------------------------------------------------
D[-4-4-44-x-4-4-44--x-4-4-2--4-4-44--4-2-4-5-5-7-7-5------
A[-4-4-44-x-4-4-44--x-4-4-2--4-4-44--4-2-4-5-5-7-7-5------
D[-4-4-44-x-4-4-44--x-4-4-2--4-4-44--4-2-4-5-5-7-7-5------

Chorus (x2)
e[--------------------------------------------------------
B[--------------------------------------------------------
G[-7--7-7-------7-----------------------------------------
D[-7--7-7-------7-------4-4-4h5p4-------------------------
A[-5--5-5-5h6p5-5-5h6p5-4-4-------------------------------
D[-0--0-0-------0-------4-4-------------------------------

Post-Chorus
e[--------------------------------------------------------
B[--------------------------------------------------------
G[--------------------------------------------------------
D[-0-0-00-----0-0-00----2-0-0-00-----0-0---4--4h5p4-------
A[-0-0-00-----0-0-00----2-0-0-00-----0-0---4--------------
D[-0-0-00--0--0-0-00-00-2-0-0-00--0--0-0---4--------------
          PM         PM          PM 

Verse (x4)

Chorus (x2)
Post-Chorus

Really long ending part (THIS IS TECHNICALLY NOT A SOLO.  IF IT WAS, TONY'S
FINGERS WOULD BE MOVING ALL OVER THE NECK AND STRINGS AT A VERY FAST "PACE")

Open with this                        Play this really fast
e[--------------------------------------------------------------
B[--------------------------------------------------------------
G[--------------------------------------------------------------
D[-----------------------------------0h4-0h4-0h4-0h4-4h5p4------
A[-9~~~~~~~~~~~~~~--9h10~~~~~~~~~~~--0h4-0h4-0h4-0h4-4h5p4------
D[-----------------------------------0h4-0h4-0h4-0h4-4h5p4------

This is the main part (Play it fast)
e[-----------------------------------------
B[-----------------------------------------
G[-----------------------------------------
D[-0h4-0h4-0h4-0h4-4h5p4-------------------
A[-0h4-0h4-0h4-0h4-4h5p4-------------------
D[-0h4-0h4-0h4-0h4-4h5p4-------------------

Throw this in on the fourth or fifth time, at the end, at least
e[-----------------------------------------
B[-----------------------------------------
G[-----------------------------------------
D[-0-xxxx-0--------------------------------
A[-0-xxxx-0--------------------------------
D[-0-xxxx-0--------------------------------

Play the main part a ton of times (Palm mute it on the fifth or sixth time and
keep it palm muted for an additional three times)

After the three times the main part is palm muted, Tony adds this every time in
with some weird effect
e[-------------------------------------------------
B[-------------------------------------------------
G[-------------------------------------------------
D[-444444-222222-----------------------------------
A[-444444-222222-----------------------------------
D[-444444-222222-----------------------------------

Then, finally, the ending riff
e[-------------------------------------------------
B[-------------------------------------------------
G[-------------------------------------------------
D[-0-4-0-4-0-4-0-4-0-4-----------------------------
A[-0-4-0-4-0-4-0-4-0-4-----------------------------
D[-0-4-0-4-0-4-0-4-0-4-----------------------------

Song Structure
Intro  (x2)
Verse  (x4)
Chorus (x2)
Post-Chorus
Verse  (x4)
Chorus (x2)
Post-Chorus
Really long ending riffs (x?)

That's it.  Enjoy!  Godsmack forever!
Suggest correction
comments
print report bad tab
2 comments total. show 1 bad comment
-2 reply
Confusinomiton 10 May 29, 2007 09:32 PM

Thanks great tab and yes Godsmack still kicks ass ROCK ON !,,!
'';

guest
You may want to rate the tab now too:
select rating
Wanna post a correction for this tab? Suggest correction