Oops, an error
Loading. Please wait.

No Rest For The Wicked tab

version 3
version 3

Whole song

Interactive

6,540 views 6 this week
2 commentsread comments
1 2 3 4 5
x 7
add to favorites
×
Save as Personal and add changes to this tab that will be seen only by you. Learn more ›
×
You can save this tab as Personal to edit and correct it or add notes. All changes will be seen only by you. Learn more »
launch autoscroll
font size
0
reset
how to read this tab
guitar tuner
edit
Autoscroll
slow
fast
+/-
esc
set tempo
stop
no rest for the wicked (low to high) CGCFAD
                                            *=palm mute     /=slide down   o=open toe 
pedal
                                            p=pull off      \=slide up     +=closed toe 
pedal
                                            h=hammer on   p.s=pick scrape
intro (dist)                                T=trem pick     ^=bend
---------------------------------------------------------------------|
---------------------------------------------------------------------|
---------------------------------------------------------------------|
-------------------------------------------------------------3-----5-|
---5-5-------6-5---5-5-5-3p0-------5-5-------6-5---5-5-5-----3-----5-|
-0-----0-0-0-----0-----------6-5-0-----0-0-0-----0-------0-0-3-0-0-5-|
                                                         * *   * *

intro cont (dist)
---------------------------------------------------------------------|
---------------------------------------------------------------------|
---------------------------------------------------------------------|
-------------------------------------------------------------3-----5-|
---5-5-------6-5---5-5-5-3p0-------5-5-------6-5---5-5-5-----3-----5-|
-0-----0-0-0-----0-----------6-5-0-----0-0-0-----0-------0-0-3-0-0-5-|
                                                         * *   * *

intro 2 (dist)
----------------------------------------------------------------------|
----------------------------------------------------------------------|
----------------------------------------------------------------------|
---7-7-------8-7---7-7-7-----6-5---7-7-------8-7----7-7-7-----3-----5-|
---5-5-------6-5---5-5-5-3p0-6-5---5-5-------6-5----5-5-5-----3-----5-|
-0-----0-0-0-----0-----------6-5-0-----0-0-0------0-------0-0-3-0-0-5-|
                                                          * *   * *

verse (dist)
-----------------------------------------------------------------------------------|
-----------------------------------------------------------------------------------|
-----------------------------------------------------------------------------------|
-0-(0)---------------------------------0-(0)-----------------------------0-3-3-5-0-|
-0-(0)---5-5-------6-5---5-5-5-3p0-----0-(0)-------5-5-------6-5---5-5-5-0-3-3-5-0-|
-0-(0)-0-----0-0-0-----0-----------6-5-0-(0)-15\-0-----0-0-0-----0-------0-3-3-5-0-|

pre-chorus (dist)
---------------------------------------------------------------------------------------|
---------------------------------------------------------------------------------------|
---------------------------------------------------------------------------------------|
-5-5-5-5-5-0-0-3-3-5-5-5-5-5-5-5-5-5---7-7-------8-7---7-7-7-0-3-3-5-0-5-5-5-5-5-5-x-8-|
-5-5-5-5-5-0-0-3-3-3-3-3-3-3-3-3-3-3---5-5-------6-5---5-5-5-0-3-3-5-0-5-5-5-5-5-5-x-8-|
-5-5-5-5-5-0-0-3-3-3-3-3-3-3-3-3-3-3-0-----0-0-0-----0-------0-3-3-5-0-5-5-5-5-5-5-x-8-|

pre-chorus cont (dist)
----------------------------------|
----------------------------------|
----------------------------------|
-(8)-8-10-10-10-10-10-10-10-10-10-|
-(8)-8--8--8--8--8--8--8--8--8--8-|
-(8)-8--8--8--8--8--8--8--8--8--8-|

chorus (dist)
---------------------------------------------------------------------------------|
---------------------------------------------------------------------------------|
---------------------------------------------------------------------------------|
-12-14-14-14-14-14-14--10-10-12-12-12-12-12-12-12-12-12-12-8-10-10-10-10-10-0-10-|
-12-12-12-12-12-12-12--10-10-10-10-10-10-10-10-10-10-10-10-8--8--8--8--8--8-0-10-|
-12-12-12-12-12-12-12--10-10-10-10-10-10-10-10-10-10-10-10-8--8--8--8--8--8-0-10-|

chorus cont (dist)
----------------------------------|
----------------------------------|
----------------------------------|
-10-12-12-12-12-12-12-12-12-12-12-|
-10-10-10-10-10-10-10-10-10-10-10-|
-10-10-10-10-10-10-10-10-10-10-10-|

chorus 2 (dist)
---------------------------------------------------------------------------------|
---------------------------------------------------------------------------------|
---------------------------------------------------------------------------------|
-12-14-14-14-14-14-14-10-10-(10)-12-12-12-12-12-12-12-12-12-12-8-10-10-10-10---7-|
-12-12-12-12-12-12-12-10-10-(10)-10-10-10-10-10-10-10-10-10-10-8--8--8--8--8-0-7-|
-12-12-12-12-12-12-12-10-10-(10)-10-10-10-10-10-10-10-10-10-10-8--8--8--8--8-0-7-|
                                                                             *

intro (dist)
---------------------------------------------------------------------|
---------------------------------------------------------------------|
---------------------------------------------------------------------|
-------------------------------------------------------------3-----5-|
---5-5-------6-5---5-5-5-3p0-------5-5-------6-5---5-5-5-----3-----5-|
-0-----0-0-0-----0-----------6-5-0-----0-0-0-----0-------0-0-3-0-0-5-|
                                                         * *   * *

verse (dist)
-----------------------------------------------------------------------------------|
-----------------------------------------------------------------------------------|
-----------------------------------------------------------------------------------|
-0-(0)---------------------------------0-(0)-----------------------------0-3-3-5-0-|
-0-(0)---5-5-------6-5---5-5-5-3p0-----0-(0)-------5-5-------6-5---5-5-5-0-3-3-5-0-|
-0-(0)-0-----0-0-0-----0-----------6-5-0-(0)-15\-0-----0-0-0-----0-------0-3-3-5-0-|

pre-chorus (dist)
---------------------------------------------------------------------------------------|
---------------------------------------------------------------------------------------|
---------------------------------------------------------------------------------------|
-5-5-5-5-5-0-0-3-3-5-5-5-5-5-5-5-5-5---7-7-------8-7---7-7-7-0-3-3-5-0-5-5-5-5-5-5-x-8-|
-5-5-5-5-5-0-0-3-3-3-3-3-3-3-3-3-3-3---5-5-------6-5---5-5-5-0-3-3-5-0-5-5-5-5-5-5-x-8-|
-5-5-5-5-5-0-0-3-3-3-3-3-3-3-3-3-3-3-0-----0-0-0-----0-------0-3-3-5-0-5-5-5-5-5-5-x-8-|

pre-chorus cont (dist)
----------------------------------|
----------------------------------|
----------------------------------|
-(8)-8-10-10-10-10-10-10-10-10-10-|
-(8)-8--8--8--8--8--8--8--8--8--8-|
-(8)-8--8--8--8--8--8--8--8--8--8-|

chorus (dist)
---------------------------------------------------------------------------------|
---------------------------------------------------------------------------------|
---------------------------------------------------------------------------------|
-12-14-14-14-14-14-14--10-10-12-12-12-12-12-12-12-12-12-12-8-10-10-10-10-10-0-10-|
-12-12-12-12-12-12-12--10-10-10-10-10-10-10-10-10-10-10-10-8--8--8--8--8--8-0-10-|
-12-12-12-12-12-12-12--10-10-10-10-10-10-10-10-10-10-10-10-8--8--8--8--8--8-0-10-|

chorus cont (dist)
----------------------------------|
----------------------------------|
----------------------------------|
-10-12-12-12-12-12-12-12-12-12-12-|
-10-10-10-10-10-10-10-10-10-10-10-|
-10-10-10-10-10-10-10-10-10-10-10-|

chorus (dist)
---------------------------------------------------------------------------------|
---------------------------------------------------------------------------------|
---------------------------------------------------------------------------------|
-12-14-14-14-14-14-14--10-10-12-12-12-12-12-12-12-12-12-12-8-10-10-10-10-10-0-10-|
-12-12-12-12-12-12-12--10-10-10-10-10-10-10-10-10-10-10-10-8--8--8--8--8--8-0-10-|
-12-12-12-12-12-12-12--10-10-10-10-10-10-10-10-10-10-10-10-8--8--8--8--8--8-0-10-|

chorus cont (dist)
----------------------------------|
----------------------------------|
----------------------------------|
-10-12-12-12-12-12-12-12-12-12-12-|
-10-10-10-10-10-10-10-10-10-10-10-|
-10-10-10-10-10-10-10-10-10-10-10-|

chorus (dist)
---------------------------------------------------------------------------------|
---------------------------------------------------------------------------------|
---------------------------------------------------------------------------------|
-12-14-14-14-14-14-14--10-10-12-12-12-12-12-12-12-12-12-12-8-10-10-10-10-10-0-10-|
-12-12-12-12-12-12-12--10-10-10-10-10-10-10-10-10-10-10-10-8--8--8--8--8--8-0-10-|
-12-12-12-12-12-12-12--10-10-10-10-10-10-10-10-10-10-10-10-8--8--8--8--8--8-0-10-|

chorus cont (dist)
----------------------------------|
----------------------------------|
----------------------------------|
-10-12-12-12-12-12-12-12-12-12-12-|
-10-10-10-10-10-10-10-10-10-10-10-|
-10-10-10-10-10-10-10-10-10-10-10-|


chorus cont (dist)
---------------------------------------------------------------------------------|
---------------------------------------------------------------------------------|
---------------------------------------------------------------------------------|
-12-14-14-14-14-14-14-10-10-(10)-12-12-12-12-12-12-12-12-12-12-8-10-10-10-10---7-|
-12-12-12-12-12-12-12-10-10-(10)-10-10-10-10-10-10-10-10-10-10-8--8--8--8--8-0-7-|
-12-12-12-12-12-12-12-10-10-(10)-10-10-10-10-10-10-10-10-10-10-8--8--8--8--8-0-7-|
                                                                             *
chorus 2 (dist)
-------------------|
-------------------|
-------------------|
-(7)-7-7-7-7-7-7-7-|
-(7)-7-7-7-7-7-7-7-|
-(7)-7-7-7-7-7-7-7-|

bridge (w/wah-wah used as filter)
-------------------------------------------------|
-------------------------------------------------|
-------------------------------------------------|
-0-0-0-0-0-3-0-0-0-0-0-3-0-0-0-0-0-3-6-5-0-6-5-3-|
-0-0-0-0-0-3-0-0-0-0-0-3-0-0-0-0-0-3-6-5-0-6-5-3-|
-0-0-0-0-0-3-0-0-0-0-0-3-0-0-0-0-0-3-6-5-0-6-5-3-|

bridge cont (w/wah-wah used as filter)
----------------------------------------------|
----------------------------------------------|
-------------------------------------0--------|
-0-0-0-0-0-3-0-0-0-0-0-3-0-0-0-0-0-3-5--------|
-0-0-0-0-0-3-0-0-0-0-0-3-0-0-0-0-0-3----------|
-0-0-0-0-0-3-0-0-0-0-0-3-0-0-0-0-0-3---/-12-\-|

bridge cont (w/wah-wah used as filter)
-------------------------------------------------|
-------------------------------------------------|
-------------------------------------------------|
-0-0-0-0-0-3-0-0-0-0-0-3-0-0-0-0-0-3-6-5-0-6-5-3-|
-0-0-0-0-0-3-0-0-0-0-0-3-0-0-0-0-0-3-6-5-0-6-5-3-|
-0-0-0-0-0-3-0-0-0-0-0-3-0-0-0-0-0-3-6-5-0-6-5-3-|

bridge cont (w/wah-wah used as filter)
-------------------------------------------------|
-------------------------------------------------|
-------------------------------------------------|
-0-0-0-0-0-3-0-0-0-0-0-3-0-0-0-0-0-3-6-5-0-6-5-3-|
-0-0-0-0-0-3-0-0-0-0-0-3-0-0-0-0-0-3-6-5-0-6-5-3-|
-0-0-0-0-0-3-0-0-0-0-0-3-0-0-0-0-0-3-6-5-0-6-5-3-|

bridge cont (w/wah-wah used as filter)
-------------------------------------------------|
-------------------------------------------------|
-------------------------------------------------|
-0-0-0-0-0-3-0-0-0-0-0-3-0-0-0-0-0-3-6-5-0-6-5-3-|
-0-0-0-0-0-3-0-0-0-0-0-3-0-0-0-0-0-3-6-5-0-6-5-3-|
-0-0-0-0-0-3-0-0-0-0-0-3-0-0-0-0-0-3-6-5-0-6-5-3-|

bridge cont (w/wah-wah used as filter)
-----------------------------------------------|
-----------------------------------------------|
-----------------------------------------------|
-0-0-0-0-0-3-0-0-0-0-0-3-0-0-0-0-0-3-8---------|
-0-0-0-0-0-3-0-0-0-0-0-3-0-0-0-0-0-3-6--x------|
-0-0-0-0-0-3-0-0-0-0-0-3-0-0-0-0-0-3-6--x--12\-|
                                       p.s
fill in (dist)
-------------------------|
-------------------------|
-------------------------|
-------------------------|
---5-5-------6-5---5-5-5-|
-0-----0-0-0-----0-------|

solo w/wah-wah
------------10-10---------------------------------------------------------|
------------10-10---------------------------------------------------------|
-13-13^-13^-------13-13-13-13-13-13-13-13-13-13-13-13-13-13-10-10-10-10---|
------------------------------------------------------------------------0-|
--------------------------------------------------------------------------|
--------------------------------------------------------------------------|
 T  T   T   T   T  T  T  T  T  T  T  T  T  T  T  T  T  T  T  T  T  T  T T
 o              +     o  +     o  +  o  +  o  +  o  +     o  +  o  +  o +

solo cont w/wah-wah
-------10----10----10---------------10----10----10--10--(10)-10--10--10--10--10--10--10--10--10--10--10--10--|
----10----10----10-----13^-(13)--------10----10-10--10--(10)-10--10--10--10--10--10--10--10--10--10--10--10--|
-13-----------------------------12^-------------12^-12^-(12)-12^-12^-12^-12^-12^-12^-12^-12^-12^-12^-12^-12^-|
-------------------------------------------------------------------------------------------------------------|
-------------------------------------------------------------------------------------------------------------|
-------------------------------------------------------------------------------------------------------------|
                                              o  +        o  +   o    +   o   +   o   +  
o    +   o  +   o
                                                 T           T

chorus (dist)
---------------------------------------------------------------------------------|
---------------------------------------------------------------------------------|
---------------------------------------------------------------------------------|
-12-14-14-14-14-14-14--10-10-12-12-12-12-12-12-12-12-12-12-8-10-10-10-10-10-0-10-|
-12-12-12-12-12-12-12--10-10-10-10-10-10-10-10-10-10-10-10-8--8--8--8--8--8-0-10-|
-12-12-12-12-12-12-12--10-10-10-10-10-10-10-10-10-10-10-10-8--8--8--8--8--8-0-10-|

chorus cont (dist)
----------------------------------|
----------------------------------|
----------------------------------|
-10-12-12-12-12-12-12-12-12-12-12-|
-10-10-10-10-10-10-10-10-10-10-10-|
-10-10-10-10-10-10-10-10-10-10-10-|

chorus (dist)
---------------------------------------------------------------------------------|
---------------------------------------------------------------------------------|
---------------------------------------------------------------------------------|
-12-14-14-14-14-14-14--10-10-12-12-12-12-12-12-12-12-12-12-8-10-10-10-10-10-0-10-|
-12-12-12-12-12-12-12--10-10-10-10-10-10-10-10-10-10-10-10-8--8--8--8--8--8-0-10-|
-12-12-12-12-12-12-12--10-10-10-10-10-10-10-10-10-10-10-10-8--8--8--8--8--8-0-10-|

chorus cont (dist)
----------------------------------|
----------------------------------|
----------------------------------|
-10-12-12-12-12-12-12-12-12-12-12-|
-10-10-10-10-10-10-10-10-10-10-10-|
-10-10-10-10-10-10-10-10-10-10-10-|

chorus (dist)
---------------------------------------------------------------------------------|
---------------------------------------------------------------------------------|
---------------------------------------------------------------------------------|
-12-14-14-14-14-14-14--10-10-12-12-12-12-12-12-12-12-12-12-8-10-10-10-10-10-0-10-|
-12-12-12-12-12-12-12--10-10-10-10-10-10-10-10-10-10-10-10-8--8--8--8--8--8-0-10-|
-12-12-12-12-12-12-12--10-10-10-10-10-10-10-10-10-10-10-10-8--8--8--8--8--8-0-10-|

chorus cont (dist)
----------------------------------|
----------------------------------|
----------------------------------|
-10-12-12-12-12-12-12-12-12-12-12-|
-10-10-10-10-10-10-10-10-10-10-10-|
-10-10-10-10-10-10-10-10-10-10-10-|


chorus cont (dist)
---------------------------------------------------------------------------------|
---------------------------------------------------------------------------------|
---------------------------------------------------------------------------------|
-12-14-14-14-14-14-14-10-10-(10)-12-12-12-12-12-12-12-12-12-12-8-10-10-10-10---7-|
-12-12-12-12-12-12-12-10-10-(10)-10-10-10-10-10-10-10-10-10-10-8--8--8--8--8-0-7-|
-12-12-12-12-12-12-12-10-10-(10)-10-10-10-10-10-10-10-10-10-10-8--8--8--8--8-0-7-|
                                                                             *
-----------------|
-----------------|
-----------------|
-7-7-7-7-7-7-7-7-|
-7-7-7-7-7-7-7-7-|
-7-7-7-7-7-7-7-7-|

outro (dist)
---------------------------------------------------------------------|
---------------------------------------------------------------------|
---------------------------------------------------------------------|
-------------------------------------------------------------3-----5-|
---5-5-------6-5---5-5-5-3p0-------5-5-------6-5---5-5-5-----3-----5-|
-0-----0-0-0-----0-----------6-5-0-----0-0-0-----0-------0-0-3-0-0-5-|
                                                         * *   * *

            
            
Suggest correction
Creating personal tab
Creating personal tab
You can edit any tab online and save it as your Personal.

You can edit, replace or remove any tab part or add personal notes – all changes will be seen only by you.

Personal tabs can be accessed anytime from any device, even offline.
Learn more »
comments
print report bad tab
2 comments total.
0 reply
sonyashadron 10 Dec 30, 2006 06:56 PM

this song is awsome this is what i wanted for a distorted guitar this is great 100% perfect

0 reply
will.tiron 10 Jun 27, 2014 05:15 AM

cool :)) i enjoed play this

guest
You may want to rate the tab now too:
select rating
Wanna post a correction for this tab? Suggest correction