Oops, an error
Loading. Please wait.

One Rainy Day Tab

version 5
version 5

Whole song

Interactive

5,842 views 1 this week
2 commentsread comments
1 2 3 4 5
x 12
add to favorites
launch autoscroll
font size
0
reset
how to read this tab
guitar tuner
Autoscroll
slow
fast
+/-
esc
set tempo
stop
Help us to improve Ultimate-Guitar.com Take our survey!
×
Author
Difficulty
advanced
one rainy day (low to high) DADGBE
                                   ^=bend             /=slide up     R=rake
                                   h=hammer on        \=slide down
                                   p=pull off       p.s=pick scrape
                                   *=palm mute        t=trem pick

intro (slight dist)
-----0----------------------0-------------|
-------3----------------------3-----------|
---------0--------------------------------|
-2-2--------------------2-2-----2-2-0-3-3-|
-2-2-------2-3-5-5^-(5)-2-2-----2-2-0-3-3-|
-2-2-------2-3-5-5^-(5)-2-2-----2-2-0-3-3-|

intro cont (slight dist)
-----0----------------------0-------------|
-------3----------------------3-----------|
---------0--------------------------------|
-2-2--------------------2-2-----2-2-0-3-0-|
-2-2-------2-3-5-5^-(5)-2-2-----2-2-0-3-0-|
-2-2-------2-3-5-5^-(5)-2-2-----2-2-0-3-0-|

intro cont (slight dist)
-----0----------------------0-------------|
-------3----------------------3-----------|
---------0--------------------------------|
-2-2--------------------2-2-----2-2-0-3-0-|
-2-2-------2-3-5-5^-(5)-2-2-----2-2-0-3-0-|
-2-2-------2-3-5-5^-(5)-2-2-----2-2-0-3-0-|

intro cont (slight dist)
-----0----------------------0-------------|
-------3----------------------3-----------|
---------0--------------------------------|
-2-2--------------------2-2-----2-2-0-3-0-|
-2-2-------2-3-5-5^-(5)-2-2-----2-2-0-3-0-|
-2-2-------2-3-5-5^-(5)-2-2-----2-2-0-3-0-|


verse (slight dist)
-----0----------------------0-------------|
-------3----------------------3-----------|
---------0--------------------------------|
-2-2--------------------2-2-----2-2-0-3-0-|
-2-2-------2-3-5-5^-(5)-2-2-----2-2-0-3-0-|
-2-2-------2-3-5-5^-(5)-2-2-----2-2-0-3-0-|

verse cont (slight dist)
-----0----------------------0-------------|
-------3----------------------3-----------|
---------0--------------------------------|
-2-2--------------------2-2-----2-2-0-3-0-|
-2-2-------2-3-5-5^-(5)-2-2-----2-2-0-3-0-|
-2-2-------2-3-5-5^-(5)-2-2-----2-2-0-3-0-|

verse cont (slight dist)
-----0----------------------0-------------|
-------3----------------------3-----------|
---------0--------------------------------|
-2-2--------------------2-2-----2-2-0-3-0-|
-2-2-------2-3-5-5^-(5)-2-2-----2-2-0-3-0-|
-2-2-------2-3-5-5^-(5)-2-2-----2-2-0-3-0-|

verse cont (slight dist)
-----0----------------------0-------------|
-------3----------------------3-----------|
---------0--------------------------------|
-2-2--------------------2-2-----2-2-0-3-0-|
-2-2-------2-3-5-5^-(5)-2-2-----2-2-0-3-0-|
-2-2-------2-3-5-5^-(5)-2-2-----2-2-0-3-0-|

verse 2 (slight dist)
-----0----------------------0-------------|
-------3----------------------3-----------|
---------0--------------------------------|
-2-2--------------------2-2-----2-2-0-3-0-|
-2-2-------2-3-5-5^-(5)-2-2-----2-2-0-3-0-|
-2-2-------2-3-5-5^-(5)-2-2-----2-2-0-3-0-|

chorus (slight dist)
------------------------------------------|
-----1---3---1----------------------0-----|
-0---------------0----2-------2-------2---|
-2-----------------2--1---1-----1-------1-|
-3-3---3---3---3------2-2---2-----2-------|
------------------------------------------|

chorus cont (slight dist)
---------------------------------------|
-----1---3---1-----------------------0-|
-0---------------0----2---2------------|
-2-----------------2--1-1-----1---1----|
-3-3---3---3---3------2-----2---2------|
---------------------------------------|

solo (dist) w/wah-wah
-0---0-0-0-0-0-------0----|
-3/5-5-5-5-5-5-\-3-3---3\-|
--------------------------|
--------------------------|
--------------------------|
--------------------------|

solo (dist)
-------------------------------------------------------------------------------------------------|
-\0----------------------------------------------------------------------------------------------|
----2p0---0-2-2^-(2)p0---------------------------------------------12^-(12)-(12)^----------------|
--------2--------------2p0h2p0-(2)-(0)h2p0-------12----12-14-14-14----------------14p12----12-14-|
-------------------------------------------12/14----14----------------------------------14-------|
-------------------------------------------------------------------------------------------------|

solo cont (dist)
---------------------------------------------------------|
----------------------------------------0-0--------------|
-14-12^-12------------------------------0-2-2^-(2)p0-----|
-----------14-12----12-14-14-14-(14)\-2--------------2-0-|
-----------------14--------------------------------------|
---------------------------------------------------------|

verse (slight dist)
-----0----------------------0-------------|
-------3----------------------3-----------|
---------0--------------------------------|
-2-2--------------------2-2-----2-2-0-3-0-|
-2-2-------2-3-5-5^-(5)-2-2-----2-2-0-3-0-|
-2-2-------2-3-5-5^-(5)-2-2-----2-2-0-3-0-|

verse cont (slight dist)
-----0----------------------0-------------|
-------3----------------------3-----------|
---------0--------------------------------|
-2-2--------------------2-2-----2-2-0-3-0-|
-2-2-------2-3-5-5^-(5)-2-2-----2-2-0-3-0-|
-2-2-------2-3-5-5^-(5)-2-2-----2-2-0-3-0-|

verse cont (slight dist)
-----0----------------------0-------------|
-------3----------------------3-----------|
---------0--------------------------------|
-2-2--------------------2-2-----2-2-0-3-0-|
-2-2-------2-3-5-5^-(5)-2-2-----2-2-0-3-0-|
-2-2-------2-3-5-5^-(5)-2-2-----2-2-0-3-0-|

verse cont (slight dist)
-----0----------------------0-------------|
-------3----------------------3-----------|
---------0--------------------------------|
-2-2--------------------2-2-----2-2-0-3-0-|
-2-2-------2-3-5-5^-(5)-2-2-----2-2-0-3-0-|
-2-2-------2-3-5-5^-(5)-2-2-----2-2-0-3-0-|

verse 2 (slight dist)
-----0----------------------0-------------|
-------3----------------------3-----------|
---------0--------------------------------|
-2-2--------------------2-2-----2-2-0-3-0-|
-2-2-------2-3-5-5^-(5)-2-2-----2-2-0-3-0-|
-2-2-------2-3-5-5^-(5)-2-2-----2-2-0-3-0-|

chorus (slight dist)
------------------------------------------|
-----1---3---1----------------------0-----|
-0---------------0----2-------2-------2---|
-2-----------------2--1---1-----1-------1-|
-3-3---3---3---3------2-2---2-----2-------|
------------------------------------------|

chorus cont (slight dist)
---------------------------------------|
-----1---3---1-----------------------0-|
-0---------------0----2---2------------|
-2-----------------2--1-1-----1---1----|
-3-3---3---3---3------2-----2---2------|
---------------------------------------|

chorus cont (slight dist)
------------------------------------------|
-----1---3---1----------------------0-----|
-0---------------0----2-------2-------2---|
-2-----------------2--1---1-----1-------1-|
-3-3---3---3---3------2-2---2-----2-------|
------------------------------------------|


chorus 2 (slight dist)
-------------------------------------------------|
---------0---------1---3---1-------------------0-|
-(2)-------2---0---------------0---2-2-------2---|
-----1-------1-2-----------------2-1-----1-------|
-------2-------3-3---3---3---3-----2---2---2-----|
-------------------------------------------------|

solo (dist)
------------------------------------------------------------------------------------------------|
-15--15-------15-15-15-15-15-15-15--15--15-15-15----15------------------------------------------|
-14^-14^-(14)-12-14-12-14-12-14-14^-14^-12-14-12h14-12-------------------------------------12---|
-------------------------------------------------------/14-12-(14)-12h14-12-(12)\-14-12-14---14-|
------------------------------------------------------------------------------------------------|
------------------------------------------------------------------------------------------------|

solo cont (dist)
----------------------------------------------------------------------------------------------|
----------------12----------------------14^-12-(12)^----------------------12-15-12-15-12-(15)-|
-------12-14h15----15-14p12----14p12----------------------14-12^----12-14---------------------|
-12-14----------------------14-------14-----------------14-------14---------------------------|
------------------------------------------------------x---------------------------------------|
----------------------------------------------------------------------------------------------|
                                                      R

solo cont (dist)
------------------------12--------------------------------12-----------------------------------|
-15^-15-(15)\-15^-(15)^----15-12h15p12-----12-12h15p12-----------------------------------------|
---------------------------------------14^-------------15----15-14h15p14p12----12-14^-12-(12)\-|
----------------------------------------------------------------------------14-----------------|
-----------------------------------------------------------------------------------------------|
-----------------------------------------------------------------------------------------------|

solo cont w/wah-wah
-------------------------------------------------------------------------------------------|
-------------------------------------------------------------------------------------------|
-2^-(2)-2^-(2)-2-2^-2^-2^-2^-2^-2^-2^-2^-2^-(2)p0-2-2^-2-2p0-2-2p0-2-2p0-2-2p0-2^-(2)-(2)^-|
-------------------------------------------------------------------------------------------|
-------------------------------------------------------------------------------------------|
-------------------------------------------------------------------------------------------|

solo cont w/wah-wah
----------------------------------------------12-----------------------------12-------------|
-------------------------------------------------15p12----12-15^-12-12----15----15-12-15p12-|
-------12----14p12----12^-(12)-12^-(12)\-/14^----------15--------------12-------------------|
-0-/14----14-------14-----------------------------------------------------------------------|
--------------------------------------------------------------------------------------------|
--------------------------------------------------------------------------------------------|

solo cont w/wah-wah
-----------------------------------------------------12------------------------------------|
----12--------------------------------------------13----13p12------------------------------|
-15----14p12-14p12\11-12-11-12/14-12-14^-12-(12)\-------------14-12p11-12p11-9-8^-(8)-(8)\-|
-------------------------------------------------------------------------------------------|
-------------------------------------------------------------------------------------------|
-------------------------------------------------------------------------------------------|

outro (slight dist)
-----0----------------------0-------------|
-------3----------------------3-----------|
---------0--------------------------------|
-2-2--------------------2-2-----2-2-0-3-3-|
-2-2-------2-3-5-5^-(5)-2-2-----2-2-0-3-3-|
-2-2-------2-3-5-5^-(5)-2-2-----2-2-0-3-3-|

fade out
Suggest correction
comments
print report bad tab
2 comments total.
0 reply
Kreuger 792 Dec 27, 2006 11:22 PM

Seems good

0 reply
sonyashadron 10 Dec 30, 2006 11:57 PM

this is real good sounds perfect 5 stars

guest
You may want to rate the tab now too:
select rating
Wanna post a correction for this tab? Suggest correction