Oops, an error
Loading. Please wait.

Re-Align Bass Tab

version 1
version 1
3,404 views 6 this week
no commentswrite comment
1 2 3 4 5
please rate
add to favorites
launch autoscroll
font size
0
reset
guitar tuner
Tab Pro tools
  • play this tab
  • loop segment
  • change instrument
  • show fretboard
  • metronome
×
Best way to learn
"Re-align"
Autoscroll
slow
fast
+/-
esc
set tempo
stop
Contributor
I've only seen wrong or very basic versions of Re-Align for bass so I figured I
would make a complete one. There may be a few errors but most of it is good.

m = mute

Intro
F |---------------------------------------------------------|
C |---------------------------------------------------------|
G |---------------------------------------------------------|
C |-0-0-00000--3-3-333/888-888--0-0-000-00000-8--8-8--3--1--|

F |---------------------------------------------------------|
C |---------------------------------------------------------|
G |---------------------------------------------------------|
C |-0-0-00000--3-3-333/888-888--0-0-000-00000-8--8-8--1-----|

Verse
F |----------------------------|
C |----------------------------|
G |----------------------------|
C |-0-0m----0-0333-333/888-888-| x4

Chorus
F |---------------------------------------------------------------------|
C |---------------------5-----------------3-----------------5-----------|
G |-----5----------03-33--33-33-6653-1-11---11-1-1-1-11-3-33--33-33-----|
C |-0-00--00-00-035-------------------------------------------------033-|

F |---------------------------------------------------------------------|
C |---------------------5-----------------3-----------------------------|
G |-----5----------03-33--33-33-6653-1-11---11-1-1-1-11-0-0-0-0-0-------|
C |-0-00--00-00-035-------------------------------------------------033-|

Bridge, same as first part of the intro
F |---------------------------------------------------------|
C |---------------------------------------------------------|
G |---------------------------------------------------------|
C |-0-0-00000--3-3-333/888-888--0-0-000-00000-8--8-8--3--1--|

Verse x4

Chorus, longer and a little different in the endings
F |---------------------------------------------------------------------|
C |---------------------5-----------------3-----------------------------|
G |-----5----------03-33--33-33-6653-1-11---11-1-1-1-11-3-3-3-3-3-------|
C |-0-00--00-00-035-------------------------------------------------033-|

F |---------------------------------------------------------------------|
C |---------------------5-----------------3-----------------------------|
G |-----5----------03-33--33-33-6653-1-11---11-1-1-1-11-3-33333---------|
C |-0-00--00-00-035----------------------------------------------2333-2-|

F |---------------------------------------------------------------------|
C |---------------------5-----------------3-----------------------------|
G |-----5----------03-33--33-33-6653-1-11---11-1-1-1-11-3-3-3-3-3-------|
C |-0-00--00-00-035-------------------------------------------------033-|

F |-------------------------------------------------------------|
C |---------------------5-------3---------3---------------------|
G |-----5----------03-33--33-33---6-3-1-11--11-1-1-1-11-0-0-0-0-|
C |-0-00--00-00-035---------------------------------------------|

Bridge
F |
C |
G |
C |-2333-2-0----2333-2-22000----2333-2-0----2333-2-22000-|

F |
C |
G |-------5/-10----------------------------------|
C |-5--------------12/-5--------55555555555555555|

Guitar solo (exactly same as the last chorus)

Bridge (looks like the intro, but wich different ending)
F |
C |
G |--------------------------------------------1-1-1-1-1/3-3-3-3-|
C |-0-0-00000--3-3-333/888-888--0-0-000-00000--------------------|

Chorus again

Ending
F |
C |
G |
C |-2333-2-0----2333-2-22000----2333-2-0----2333-2-22000-|

F |
C |
G |-------5/-10--------------5/-10-----------------------|
C |-5--------------12/-5---------------12/-5-------------|
comments
We did not receive enough feedback on this tab! Please rate:
print report bad tab
1 2 3 4 5
I want to post or [tab]
guest
You may want to rate the tab now too:
select rating
Please do not post tabs as comments. Select "correction" instead!