Oops, an error
Loading. Please wait.

Re-Align Bass Tab

version 2
version 2
3,986 views 3 this week
no commentswrite comment
1 2 3 4 5
please rate
add to favorites
launch autoscroll
font size
0
reset
guitar tuner
Autoscroll
slow
fast
+/-
esc
set tempo
stop
Help us to improve Ultimate-Guitar.com Take our survey!
×
-------------------------------------------------------------------------------
			     Re-align Godsmack 
-------------------------------------------------------------------------------


Tabbed By : DeAd-RiP 
e-mail: dead_d_91@hotmail.com

This is my first tab because i haven't seen one bass tab for this song that i liked or sounded right to me.

Tuning: Natural 5 string


Intro

G|----------------------------------------------------|
D|----------------------------------------------------|
A|----------------------------------------------------|
E|----------------------4-4-44------------------------|
B|---1--1-11----4-4-44/--------1--1-11----4-4-44--3-2-|

G|----------------------------------------------------|
D|------------------------------------------------- --|
A|----------------------------------------------------|
E|----------------------4-4-44-----------4-4-44-------|
B|---1--1-11----4-4-44/--------1--1-11------------2---|

Verse repeat as necessary 
G|-------------------------|
D|-------------------------|
A|-------------------------|
E|------------------4-4-44-|
B|--1-1---1/4-4-44/--------|

Chorus
G|-------------------------------------------------------------|
D|-------------------------------------------------------------|
A|---3-333-33-3-3\1-111-11-1-1\-------------1-111-11-1-1-------|
E|-----------------------------4-444-44-4-4/-------------------|
B|--------------------------------------------------------43-1-|

G|-------------------------------------------------------------|
D|-------------------------------------------------------------|
A|---3-333-33-3-3\1-111-11-1-1\--------------------------------|
E|-----------------------------4-444-44-4-4\-3-3-3-3-3---------|
B|-------------------------------------------------------------|

Pre-Verse
G|----------------------------------------------------|
D|----------------------------------------------------|
A|----------------------------------------------------|
E|----------------------4-4-44------------------------|
B|---1--1-11----4-4-44/--------1--1-11----4-4-44--3-2-|

Verse repeat as necessary 
G|-------------------------|
D|-------------------------|
A|-------------------------|
E|------------------4-4-44-|
B|--1-1---1/4-4-44/--------|

Chorus 2
G|-------------------------------------------------------------|
D|-------------------------------------------------------------|
A|---3-333-33-3-3\1-111-11-1-1\-------------1-111-11-1-1-------|
E|-----------------------------4-444-44-4-4/-------------------|
B|--------------------------------------------------------43-1-|

G|-------------------------------------------------------------------|
D|-------------------------------------------------------------------|
A|---3-333-33-3-3\1-111-11-1-1\-------------1-111-11-1-1-------------|
E|-----------------------------4-444-44-4-4/-------------------------|
B|--------------------------------------------------------1-3-44-3-1-|

G|-------------------------------------------------------------|
D|-------------------------------------------------------------|
A|---3-333-33-3-3\1-111-11-1-1\-------------1-111-11-1-1-------|
E|-----------------------------4-444-44-4-4/-------------------|
B|--------------------------------------------------------43-1-|

G|-------------------------------------------------------------------|
D|-------------------------------------------------------------------|
A|---3-333-33-3-3\1-111-11-1-1\-------------1-111-11-1-1-------------|
E|-----------------------------4-444-44-4-4/-------------------------|
B|--------------------------------------------------------1-3-44-3-1-|

G|------------------------------------------------|
D|------------------------------------------------|
A|------------------------------------------------|
E|------------------------------------------------|
B|1-344-2-111-1-1-1-344-1-111-1-1--344-2-111-1-1--|

Interlude (didn't quite get this) 
G|---------------|
D|---------------|
A|---------------|
E|---3---6--3-6\3|
B|---------------|

During guitar solo
G|-------------------------------------------------------------|
D|-------------------------------------------------------------|
A|---3-333-33-3-3\1-111-11-1-1\-------------1-111-11-1-1-------|
E|-----------------------------4-444-44-4-4/-------------------|
B|--------------------------------------------------------43-1-|

G|-------------------------------------------------------------------|
D|-------------------------------------------------------------------|
A|---3-333-33-3-3\1-111-11-1-1\-------------1-111-11-1-1-------------|
E|-----------------------------4-444-44-4-4/-------------------------|
B|--------------------------------------------------------1-3-44-3-1-|

G|-------------------------------------------------------------|
D|-------------------------------------------------------------|
A|---3-333-33-3-3\1-111-11-1-1\-------------1-111-11-1-1-------|
E|-----------------------------4-444-44-4-4/-------------------|
B|--------------------------------------------------------43-1-|

G|-------------------------------------------------------------|
D|-------------------------------------------------------------|
A|---3-333-33-3-3\1-111-11-1-1\--------------------------------|
E|-----------------------------4-444-44-4-4\-3-3-3-3-3---------|
B|-------------------------------------------------------------|
After solo (intro)
G|----------------------------------------------------|
D|----------------------------------------------------|
A|----------------------------------------------------|
E|----------------------4-4-44------------------------|
B|---1--1-11----4-4-44/--------1--1-11----4-4-44--3-2-|

G|----------------------------------------------------|
D|------------------------------------------------- --|
A|----------------------------------------------------|
E|----------------------4-4-44-----------4-4-44-------|
B|---1--1-11----4-4-44/--------1--1-11------------2---|

(Chorus 2)
G|-------------------------------------------------------------|
D|-------------------------------------------------------------|
A|---3-333-33-3-3\1-111-11-1-1\-------------1-111-11-1-1-------|
E|-----------------------------4-444-44-4-4/-------------------|
B|--------------------------------------------------------43-1-|

G|-------------------------------------------------------------------|
D|-------------------------------------------------------------------|
A|---3-333-33-3-3\1-111-11-1-1\-------------1-111-11-1-1-------------|
E|-----------------------------4-444-44-4-4/-------------------------|
B|--------------------------------------------------------1-3-44-3-1-|

G|-------------------------------------------------------------|
D|-------------------------------------------------------------|
A|---3-333-33-3-3\1-111-11-1-1\-------------1-111-11-1-1-------|
E|-----------------------------4-444-44-4-4/-------------------|
B|--------------------------------------------------------43-1-|

G|-------------------------------------------------------------------|
D|-------------------------------------------------------------------|
A|---3-333-33-3-3\1-111-11-1-1\-------------1-111-11-1-1-------------|
E|-----------------------------4-444-44-4-4/-------------------------|
B|--------------------------------------------------------1-3-44-3-1-|

G|------------------------------------------------|
D|------------------------------------------------|
A|------------------------------------------------|
E|------------------------------------------------|
B|1-344-2-111-1-1-1-344-1-111-1-1--344-2-111-1-1--|

(interlude)
G|---------------|
D|---------------|
A|---------------|
E|---3---6--3-6\3|
B|---------------|

| /  slide up
| \  slide down
| h  hammer-on
| p  pull-off
| ~  vibrato
| +  harmonic
| x  Mute note

Awesome song awesome band Godsmack \,,/(-_-)\,,/ 
===============================================================================

Suggest correction
What's this?
You can suggest a correction to this tab. Community and Mods will review your correction and vote to approve or reject it.
comments
We did not receive enough feedback on this tab! Please rate:
print report bad tab
1 2 3 4 5
guest
You may want to rate the tab now too:
select rating
Please do not post tabs as comments. Select "correction" instead!