Oops, an error
Loading. Please wait.

Re-Align Bass Tab

version 3
version 3
801 views 3 this week
no commentswrite comment
1 2 3 4 5
please rate
add to favorites
launch autoscroll
font size
0
reset
guitar tuner
Autoscroll
slow
fast
+/-
esc
set tempo
stop
Help us to improve Ultimate-Guitar.com Take our survey!
×
Author
Difficulty
Tuning
intermediate
B F# B E G# C#
-----------------------------------------------------------------------------
			     Realign - Godsmack
-----------------------------------------------------------------------------

Tabbed By : Bassmaster7
e-mail: rdane@ymail.com

Tuning: (low to high) BEAD
Here's a fun song to play with and after a few tries you should be able to play 
through the whole song but it does require stamina in both hands. (notes in () are notes above 9)
| /  slide up
| \  slide down
| h  hammer-on
| p  pull-off
| ~  vibrato
| +  harmonic
| x  Mute note

Intro
D|--------------------------------------------------|
A|--------------------------------------------------|
E|----------------------------|-------------1-11----|
B|-0-0-00000000-3-3-333-6-6666|-0-0-00000000----33-1| {watch out for the end switch}

D|--------------------------------------------------|
A|--------------------------------------------------|
E|----------------------------|-------------1-11----|
B|-0-0-00000000-3-3-333-6-6666|-0-0-00000000----33--|

Verse
D|--------------------------------------------------|
A|--------------------------------------------------|
E|--------------------------------------------------|
B|-0-0-03-3-333-6-6666|-0-0-03-3-333-6-6666|-X2-----|

Chorus
D|-------------------------------------------------------------|
A|---------------------------3---------------1-----------------|
E|------------------3-3333-33-33-53-1-1111-11-11-31------------|
B|0-0000-00-0-00-3-5-------------------------------1-1-33333333|

D|-----------------------------------------------------------------|
A|---------------------------3---------------1---------------------|
E|------------------3-3333-33-33-53-1-1111-11-11-31----------------|
B|0-0000-00-0-00-3-5-------------------------------1-1-33333333-011|

Post Chorus
D|--------------------------------------------------|
A|--------------------------------------------------|
E|----------------------------|-------------1-11----|
B|-0-0-00000000-3-3-333-6-6666|-0-0-00000000----33-1|

Verse
D|--------------------------------------------------|
A|--------------------------------------------------|
E|--------------------------------------------------|
B|-0-0-03-3-333-6-6666|-0-0-03-3-333-6-6666|-X2-----|

Chorus
D|-------------------------------------------------------------|
A|---------------------------3---------------1-----------------|
E|------------------3-3333-33-33-53-1-1111-11-11-31------------|
B|0-0000-00-0-00-3-5-------------------------------1-1-33333333|

D|-------------------------------------------------------------|
A|---------------------------3---------------1-----------------|
E|------------------3-3333-33-33-53-1-1111-11-11-31------------|
B|0-0000-00-0-00-3-5-------------------------------1-1-3333-5--|

D|-------------------------------------------------------------|
A|---------------------------3---------------1-----------------|
E|------------------3-3333-33-33-53-1-1111-11-11-31------------|
B|0-0000-00-0-00-3-5-------------------------------1-1-33333333|

D|-------------------------------------------------------------|
A|---------------------------3---------------1-----------------|
E|------------------3-3333-33-33-53-1-1111-11-11-31------------|
B|0-0000-00-0-00-3-5-------------------------------1-1-3333-5--|

Pre-solo
D|------------------------------------------------------|
A|------------------------------------------------------|
E|------------------------------------------------------|
B|-0-3333-1|-0000-5|-3333-1|00-0|3333-5-0|3/6|6/3|333333|

Solo
D|-------------------------------------------------------------|
A|---------------------------3---------------1-----------------|
E|------------------3-3333-33-33-53-1-1111-11-11-31------------|
B|0-0000-00-0-00-3-5-------------------------------1-1-33333333|

D|-------------------------------------------------------------|
A|---------------------------3---------------1-----------------|
E|------------------3-3333-33-33-53-1-1111-11-11-31------------|
B|0-0000-00-0-00-3-5-------------------------------1-1-3333-5--|

D|-------------------------------------------------------------|
A|---------------------------3---------------1-----------------|
E|------------------3-3333-33-33-53-1-1111-11-11-31------------|
B|0-0000-00-0-00-3-5-------------------------------1-1-33333333|

D|--------------------------------------------------------------|
A|---------------------------3---------------1------------------|
E|------------------3-3333-33-33-53-1-1111-11-11-31-------------|
B|0-0000-00-0-00-3-5-------------------------------1-1-3333-5/--|

Post Solo
D|--------------------------------------------------|
A|--------------------------------------------------|
E|----------------------------|-------------1111----|
B|-0-0-00000000-3-3-333-6-6666|-0-0-00000000----3~~~|

Chorus
D|-------------------------------------------------------------|
A|---------------------------3---------------1-----------------|
E|------------------3-3333-33-33-53-1-1111-11-11-31------------|
B|0-0000-00-0-00-3-5-------------------------------1-1-33333333|

D|-------------------------------------------------------------|
A|---------------------------3---------------1-----------------|
E|------------------3-3333-33-33-53-1-1111-11-11-31------------|
B|0-0000-00-0-00-3-5-------------------------------1-1-3333-5--|

D|-------------------------------------------------------------|
A|---------------------------3---------------1-----------------|
E|------------------3-3333-33-33-53-1-1111-11-11-31------------|
B|0-0000-00-0-00-3-5-------------------------------1-1-33333333|

D|-------------------------------------------------------------|
A|---------------------------3---------------1-----------------|
E|------------------3-3333-33-33-53-1-1111-11-11-31------------|
B|0-0000-00-0-00-3-5-------------------------------1-1-3333-5--|

Outro
D|------------------------------------------------------|
A|------------------------------------------------------|
E|------------------------------------------------------|
B|-0-3333-1|-0000-5|-3333-1|00-0|3333-5-0|3/6|6/3|3/6---|

Hope this helps, contact me for requests.
Suggest correction
Give kudos to tab author, rate the tab!
1 2 3 4 5
comments
print report bad tab
guest
You may want to rate the tab now too:
select rating
Please do not post tabs as comments. Select "correction" instead!