Oops, an error
Loading. Please wait.

Releasing The Demons Tab

version 1
version 1

Intro

Whole song

Interactive

1,096 views 1 this week
2 commentsread comments
1 2 3 4 5
accurate
x 3
add to favorites
launch autoscroll
font size
0
reset
how to read this tab
guitar tuner
Autoscroll
slow
fast
+/-
esc
set tempo
stop
Help us to improve Ultimate-Guitar.com Take our survey!
×
Author
godsmack
releasing the demons
this is only the intro


intro:

D|--0-x-0-----------------------
A|--2-x-2-----------------------
F|--3-x-3-----------------------
C|--0-x-0---6-6-6--8-8-8--7-7---
G|--0-x-0---4-4-4--6-6-6--7-7---
C|----x-------------------5-5---

i think the verse is somthing like

D|------7----------
A|----6---------6--
F|--5---------5----    with flanger effect
C|----------4------
G|-----------------
C|-----------------


thats all i could figuare out.  the vers is WAY off.
Suggest correction
Give kudos to tab author, rate the tab!
1 2 3 4 5
comments
print report bad tab
2 comments total.
0 reply
sane_person 396 wrote on May 7 2003, 12:00 am

not acurate but it works

0 reply
butthole48 115 wrote on May 14 2003, 12:00 am

i think the verse is closer to this:
1--------------
2--------------
3------7-------
4----6-------5-
5--5-------6---
6--------5-----
but what the hell do i know?

guest
You may want to rate the tab now too:
select rating
Wanna post a correction for this tab? Suggest correction