Oops, an error
Loading. Please wait.

Releasing The Demons Tab

version 2
version 2

Intro

Whole song

Interactive

291 views 1 this week
no commentswrite comment
1 2 3 4 5
please rate
add to favorites
launch autoscroll
font size
0
reset
how to read this tab
guitar tuner
Autoscroll
slow
fast
+/-
esc
set tempo
stop
Help us to improve Ultimate-Guitar.com Take our survey!
×
Author
Tuning
C G C F A D
-----------------------------------------|
-----------------------------------------|
-----------------------------------------|
-----------------------------------------| x3
--0-------------10/12-12-12-12/13-13-13--|
--0--0---0---0--10/12-12-12-12/13-13-13--|

-----------------------------------------|
-----------------------------------------|
-----------------------------------------|
-----------------------------------------|
--6--6--6-6--6/13-13-13-13-13-13-13------|
--6--6--6-6--6/13-13-13-13-13-13-13------|

I looked up the tabs for this song, and they were all way off. This is the right way to 
Releasing The Demons. If you have any corrections dont bother emailing me, because your 
This tab is 100% correct.
Suggest correction
Give kudos to tab author, rate the tab!
1 2 3 4 5
comments
print report bad tab
guest
You may want to rate the tab now too:
select rating
Wanna post a correction for this tab? Suggest correction