Oops, an error
Loading. Please wait.

Running Blind Tab

version 1
version 1

Acoustic

Interactive

10,951 views 9 this week
no commentswrite comment
1 2 3 4 5
x 5
add to favorites
launch autoscroll
font size
0
reset
how to read this tab
guitar tuner
Autoscroll
slow
fast
+/-
esc
set tempo
stop
Help us to improve Ultimate-Guitar.com Take our survey!
×
Author
Difficulty
Tuning
intermediate
C G C F A D
artist: Godsmack
Song: Running Blind Acoustic
Album: The Other Side
intro/guitar 1
--------0-0-0--------0-0-------0------0-0-0--|
--------0-0-0--------2-2-------3------0-0-0--|
--------0-0-0------- 3-3-------0------0-0-0--|
--------2-2-2------- 0-0-------0------2-2-2--|
--------2-2-2--------0-0-------0------3-3-3--|
--------0-0-0--------0-0-------0------0-0-0--|
guitar 2
-------------0---------------------------------------0-----------------------|
-------0h3-----3-------------------------------0h3------3--------------------|
-----------------------------------------------------------------------------|
-----------------------------------------------------------------------------|
-----------------------------------------------------------------------------|
-----------------------------------------------------------------------------|


Chorus
---------------------------------------------------------------|
---------------------------------------------------------------|
--------------6--------8--------6-------8---------4--------2---|
--------------7--------9--------7-------9---------5--------3---|
--------------7--------9--------7-------9---------5--------3---|
--------------5--------7--------5--------7--------3--------1---|

Solo
---------------------------------------------------------------------------|
---(3)3/(5)5/(7)7--8--7-5-3-3/5----5---5/(7)7---8--7-5-3-3/5---------------|
---------------------------------------------------------------------------|
---------------------------------------------------------------------------|
---------------------------------------------------------------------------|
---------------------------------------------------------------------------|

-----------------------------------------------------------------------------|
----12-12--8-8--10-10--7-7--8--8/10----12--12--12 10--8--7--5----------------|
-----------------------------------------------------------------------------|
-----------------------------------------------------------------------------|
-----------------------------------------------------------------------------|
-----------------------------------------------------------------------------|

----------------------------------------------------------------------------|
----------------------------------------------------------------------------|
-----14-14-14-14-14-13-11-9-9/14-14-14-14-14-16-14-13-11--------------------|
----------------------------------------------------------------------------|
----------------------------------------------------------------------------|
----------------------------------------------------------------------------|

------------------------------------------------------------------------------|
------------------------------------------------------------------------------|
----14-14-14-14-14-13-11-9-9/12-12-12-12-12-12-12/14-14-14/1------------------|
------------------------------------------------------------------------------|
------------------------------------------------------------------------------|
------------------------------------------------------------------------------|
Suggest correction
comments
print report bad tab
guest
You may want to rate the tab now too:
select rating
Wanna post a correction for this tab? Suggest correction