Oops, an error
Loading. Please wait.

Serenity Tab

version 1
version 1
41,229 views 63 this week
6 commentsread comments
1 2 3 4 5
accurate
x 12
add to favorites
launch autoscroll
font size
0
reset
how to read this tab
guitar tuner
Autoscroll
slow
fast
+/-
esc
set tempo
stop
Help us to improve Ultimate-Guitar.com Take our survey!
×
Author
Tuning
D A D G B E
godsmack:serenity
this is what I heard on radio, so there might be longer parts
key:dadgbe(dropped d)
(12 stg)

[intro/riff 1]
e|----------------------------------|
B|----------------------------------|
G|----------------------------------|
D|----0----0-0-----0------0------0--|
A|----------------------------------|
E|--0---0--------3---3--6---6--3----|[Intro] end on 6-|
                            ^-------------------------|

[Chorus]
                       1,2,3                              4th time  
E|--------------------|-----------------|                |----------------------|
B|------8----------11-|------9-------6--|                |------13-------9------|
G|--------7-----------|-----------------|                |----------------------|
D|----5----5----------|-----------------|                |----------------------|
A|---5------5----8----|---6-------------|                |---10-----------------|
D|--5-----------8-----|--6-------3------| repeat 4x then |-10---------6---------|

[riff 1]
e|----------------------------------|
B|----------------------------------|
G|----------------------------------|
D|----0----0-0-----0------0------0--|
A|----------------------------------|
E|--0---0--------3---3--6---6--3----|

[Chorus]
                       1,2,3                              4th time  
E|--------------------|-----------------|                |----------------------|
B|------8----------11-|------9-------6--|                |------13-------9------|
G|--------7-----------|-----------------|                |----------------------|
D|----5----5----------|-----------------|                |----------------------|
A|---5------5----8----|---6-------------|                |---10-----------------|
D|--5-----------8-----|--6-------3------| repeat 4x then |-10---------6---------|

[riff 1]
e|----------------------------------|
B|----------------------------------|
G|----------------------------------|
D|----0----0-0-----0------0------0--|
A|----------------------------------|
E|--0---0--------3---3--6---6--3----|

[break]
 upstroke chord
E|--0----0-------------0----------------------------------|
B|--3--3---3-------3-----3--------------------------------|
G|--2--------2-------2-----2---------7---------6---7------|
D|--0------------0--------------6--6---8--6--6---6---8-6--|
A|--0---------------------------6-------------------------|
D|--0---------------------------6-------------------------| 
repeat                         ^------2nd time hold chord on 6th fret

[riff 1]
e|----------------------------------|
B|----------------------------------|
G|----------------------------------|
D|----0----0-0-----0------0------0--|
A|----------------------------------|
E|--0---0--------3---3--6---6--3----|

 repeat till end 
 last chord
 upstroke

E|--0-|
B|--3-|
G|--2-|
D|--0-|
A|--0-|
D|--0-|
Suggest correction
comments
print report bad tab
6 comments total. Showing first comments.
-1 reply
guywithguitar 645 wrote on September 28 2003, 12:00 am

just so you know, when i saw them on hard rock live they were using a 12 string

0 reply
guywithguitar 645 wrote on September 28 2003, 12:00 am

well I feel stupid now

0 reply
WithoutaFlaw666 10 wrote on October 27 2003, 12:00 am

its all perfect except the chorus isnt even close

guest
You may want to rate the tab now too:
select rating
Wanna post a correction for this tab? Suggest correction