Oops, an error
Loading. Please wait.

Serenity Bass

version 2
version 2

Whole song

4,865 views 9 this week
no commentswrite comment
1 2 3 4 5
x 3
add to favorites
launch autoscroll
font size
0
reset
guitar tuner
×
Best way to learn
"Serenity"
Autoscroll
slow
fast
+/-
esc
set tempo
stop
Serenity
---------

song-  Serenity
band-  Godsmack
album- Faceless
year-  2003


tuning-

Drop D (D A D G)


Intro    (starts at 0:17)

 /----------3x-----------\

|-------------------------|--------------------|
|-------------------------|--------------------|
|-------------------------|--------------------|
|0---0---0---3--3-6--6-3--|0---0---0---3--3-6--|


Verse 1

 /----------8x-----------\

|-------------------------|
|-------------------------|
|-------------------------|
|0---0---0---3--3-6--6-3--|


Pre-Chorus 1

 /----------3x------------\

|--------------------------|---------------------------------|
|--------------------------|---------------------------------|
|--------------------------|---------------------------------|
|5---5---5---8--8-6--6-3-0-|5---5---5---8-8-8-10-10-10-6-6-6-|


Chorus 1

 /----------3x-----------\

|-------------------------|--------------------|
|-------------------------|--------------------|
|-------------------------|--------------------|
|0---0---0---3--3-6--6-3--|0---0---0---3--3-6--|


Interlude

 /----------3x-----------\

|-------------------------|--------------------|
|-------------------------|--------------------|
|-------------------------|--------------------|
|0---0---0---3--3-6--6-3--|0---0---0---3--3-6--|


Verse 2

 /----------8x-----------\

|-------------------------|
|-------------------------|
|-------------------------|
|0---0---0---3--3-6--6-3--|


Pre-Chorus 2

 /----------3x------------\

|--------------------------|---------------------------------|
|--------------------------|---------------------------------|
|--------------------------|---------------------------------|
|5---5---5---8--8-6--6-3-0-|5---5---5---8-8-8-10-10-10-6-6-6-|


Chorus 2

 /----------3x-----------\

|-------------------------|--------------------|
|-------------------------|--------------------|
|-------------------------|--------------------|
|0---0---0---3--3-6--6-3--|0---0---0---3--3-6--|


Bridge

 /-------------------------2x----------------------------\

|-----------------------|---------------------------------|
|-----------------------|---------------------------------|
|-----------------------|---------------------------------|
|0----------------------|6-6-6-6-6-6-6-6-6-6-6-6-6-6-6-6--|

|--------------------------------|---------------------------------|
|--------------------------------|---------------------------------|
|--------------------------------|---------------------------------|
|0-0-0-0-0-0-0-0-0-0-0-0-0-0-0-0-|6-6-6-6-6-6-6-6-6-6-6-6-6-6-6-6--|

|--------------------------------|------------------------|
|--------------------------------|------------------------|
|--------------------------------|------------------------|
|0-0-0-0-0-0-0-0-0-0-0-0-0-0-0-0-|6-----------------------|


Chorus 3

 /----------7x-----------\

|-------------------------|--------------------|-------------|
|-------------------------|--------------------|-------------|
|-------------------------|--------------------|-------------|
|0---0---0---3--3-6--6-3--|0---0---0---3--3-6--|0------------|


This is a very easy song 2 play on guitar and bass guitar.
i'm not sure if this is correct or not, but i'm also in the
process of making the tab for guitar. Please Rate!!!
Suggest correction
Give kudos to tab author, rate the tab!
1 2 3 4 5
comments
print report bad tab
guest
You may want to rate the tab now too:
select rating
Wanna post a correction for this tab? Suggest correction