Oops, an error
Loading. Please wait.

Shadow Of A Soul Bass Tab

version 1
version 1

Whole song

Interactive

253 views 1 this week
no commentswrite comment
1 2 3 4 5
please rate
add to favorites
launch autoscroll
font size
0
reset
guitar tuner
Autoscroll
slow
fast
+/-
esc
set tempo
stop
Help us to improve Ultimate-Guitar.com Take our survey!
×
Author
Difficulty
Tuning
novice
D A D G B E
this is my frist tab and i did get some help from the guitar tabs for this 
but here it is and what a song i welcome all commets

Intro and verse riff
G|----------------------------------------------|
D|----------------------------------------------|
A|---------------8--8--8--8--8--8--8--8\\-------| < play this if you want
D|-0-0-0--0-0-0---------------------------0-0-0-|
Intro part2 and chorus riff 
G|--------------------------|
D|--------------------------|
A|--------------------------|
D|-0-0-0-7-7--8-8--10-10-10-|
Play three times then play this
G|-------------------|
D|-------------------|
A|-------------------|
D|-5--5--5-5\-3-3--3-|
Bridge
G|----------------------------------------------------------------|
D|----------------------------------------------------------------|
A|----------------------------------------------------------------|
D|-0-0-0-0-000-0-0-2---2---2---2---0-0-0-0-000-0-0-2---2---2---2--|
During Solo part 1 
G|-------------------------------------------------------|
D|-------------------------------------------------------|
A|-------------------------------------------------------|
D|-5-5-5--5-5-5--8-8-8-8-8-8-8-8\-5-5-5--3-3-3-3-6-6-6-6-|
During Solo Part 2 
G|-------------------------------------------|
D|-------------------------------------------|
A|-------------------------------------------|
D|-0-0--3-3-3-3-3-3-0-0--7-7-7-7-10-10-10-10-|
During Solo end
G|-----------------------|
D|-----------------------|
A|-----------------------|
D|-0-0--3-3-3-3-3-3-6----|

You can figure the why it goes by ear but if you can’t here is how it goes

Intro part 1 fade in X7
Intro part 2 X2
Verse X4
Chorus X2
Verse X5
Chorus X4
Bridge X3
Solo part 1 X4
Solo part 2 X3
Solo end X1
Chorus till end
Suggest correction
Give kudos to tab author, rate the tab!
1 2 3 4 5
comments
print report bad tab
guest
You may want to rate the tab now too:
select rating
Please do not post tabs as comments. Select "correction" instead!