Oops, an error
Loading. Please wait.

Shine Down Bass Tab

version 1
version 1

Whole song

Interactive

2,771 views 6 this week
3 commentsread comments
1 2 3 4 5
2 more votes to show rating
add to favorites
launch autoscroll
font size
0
reset
guitar tuner
Autoscroll
slow
fast
+/-
esc
set tempo
stop
Help us to improve Ultimate-Guitar.com Take our survey!
×
Godsmack
Shine Down
CGCF

Intro:
|---|-------------5p0---|------------5p0---|
|---|*---------------57-|---------------57-|
|-r-|*-0-/8887-77-------|-0-/8885-55-------|
|---|-------------------|------------------|

                                  |1      |2        |                              
|------------5p0---|--------------|-5p0---|---------|
|---------------57-|--------------|----57-|--------*|
|-0-88887-77-------|-0-3-3-335-55-|-------|--------*|
|------------------|--------------|-------|-7-8-7-0-|

Verse:
|----------------------------------|
|*---------------------------------|
|*---------------------------------|
|-7777-x777-x77x-7777-x777-8888888-|

|----------------------------------| 
|---------------------------------*| 
|---------------------------------*|
|-7777-x777-x77x-7777-x777-5555555-|

Pre-Chorus:
|---------------|
|*-------------*|
|*-------------*|
|-3-3-3~-5-5-5~-|

Chorus:
|-------------5p0---|------------5p0---|
|*---------------57-|---------------57-|
|*-0-/8887-77-------|-0-/8885-55-------|
|-------------------|------------------|

                                  |1      |2        |                              
|------------5p0---|--------------|-5p0---|---------|
|---------------57-|--------------|----57-|--------*|
|-0-88887-77-------|-0-3-3-335-55-|-------|--------*|
|------------------|--------------|-------|-7-8-7-0-|

Verse:
Pre-Chorus:
Chorus:

Solo:
|----------------------------------|
|*--------------------------------*|
|*--------------------------------*|
|-2-2-2-2-2~-3-3-3-3-3~-5-5-5-5-5~-|

|----------------------|
|----------------------|
|----------------------|
|-2-2-2-2-2-3-3~-5~5-r-|

Chorus: X2

Outro: Repeat chorus until song fades out.
Suggest correction
Give kudos to tab author, rate the tab!
1 2 3 4 5
comments
print report bad tab
3 comments total.
0 reply
_godsmack_ 370 Sep 04, 2006 12:55 PM

most of (if not all of) godsmacks songs are drop d tuning on the IV i think...

0 reply
cnorthern 61 Oct 04, 2006 05:28 PM

not true, this song is drop C (drop D and tuned down 1 whole step). This is the same tuning for Speak as well.

0 reply
Cerx 151 Apr 10, 2008 11:44 AM

Verse is right, pre-chorus is okay but misses some notes, solo is right, but I don't agree with you on the chorus. Especially those 8th-fret notes are not played. And you need it to be in drop C for one tone in the chorus (which I don't even think is there), otherwise it could be played easily in drop D.

guest
You may want to rate the tab now too:
select rating
Wanna post a correction for this tab? Suggest correction