Oops, an error
Loading. Please wait.

Shine Down Bass Tab

version 2
version 2

Whole song

Interactive

1,023 views 1 this week
no commentswrite comment
1 2 3 4 5
please rate
add to favorites
launch autoscroll
font size
0
reset
guitar tuner
Autoscroll
slow
fast
+/-
esc
set tempo
stop
Help us to improve Ultimate-Guitar.com Take our survey!
×
Author
Drop D tuning (DADG)


Intro/chorus
--------------------------------------------------------------|
------------3-5---5-----------------------3-5---3-------------|
--------3-5---------------------------3-5---------------------|
5---5-5---------------5---5-5-5---5-5-------------3---3---3-3-|

--------------------------------------------------------------|
------------3-5---5-------------------------------------------|
--------3-5-------------------1-----1-1-1-3-----3-3-----------|
5---5-5---------------5---5-5-------------------------3-5-6-3-| x2

Verse
----------------------------------------------------------------|
----------------------------------------------------------------|
----------------------------------------------------------------|
5-5-5-5-----5-5-5-5-----5-5-----5-5-5-5-----5-5-5-6-6-6-6-6-6-6-|

----------------------------------------------------------------|
----------------------------------------------------------------|
----------------------------------------------------------------|
5-5-5-5-----5-5-5-5-----5-5-----5-5-5-5-----5-5-5-3-3-3-3-3-3-3-| x2

Pre-chorus
----------------------------------------------------------------|
----------------------------------------------------------1-1-3-|
--------------------------------------------------1-3---3-------|
1-----1-----1-----1-----1---1---3-----3-----3-3-3-----3---------|

----------------------------------------------------------------|
----------------------------------------------------------------|
----------------------------------------------------------------|
1-----1-----1-----1-----1---1---0-----0-----3-----3m------------|

Chorus x2

Verse x2

Second Pre-chorus
----------------------------------------------------------------|
----------------------------------------------------------1-1-3-|
--------------------------------------------------1-3---3-------|
1-----1-----1-----1-----1---1---3-----3-----3-3-3-----3---------|

----------------------------------------------------------------|
------------------------------------------------5-5-5-3---------|
--------------------------------------------------------6-3-----|
1-----1-----1-----1-----1---1---3-----3-----3-3-------------5-3-|

----------------------------------------------------------------|
----------------------------------------------------------------|
------------------------------------------------1/3-3---5---3---|
1-----1-----1-----1-----1---1---3-----3-----3-3-------3---------|

----------------------------------------------------------------|
----------------------------------------------------------------|
----------------------------------------------------------------|
1-----1-----1-----1-----1---1---0-----0-----3-----3-------------|

Chorus x2

Harmonica solo x4
---------------------------------------------------|-Don't play--|
---------------------------------------------------|-this last---|
---------------------------------------------------|-time--------|
0-----------0-----------0-------1-----1-----3-----3|-----3---3---|

And then it's just chorus 'til the end. I don't think this is 100% accurate but it 
help you play the song properly at least. Good luck!
Suggest correction
Give kudos to tab author, rate the tab!
1 2 3 4 5
comments
print report bad tab
guest
You may want to rate the tab now too:
select rating
Wanna post a correction for this tab? Suggest correction