Oops, an error
Loading. Please wait.

Sick Of Life Tab

version 3
version 3

Whole song

Interactive

646 views 1 this week
1 commentread comment
1 2 3 4 5
please rate
add to favorites
launch autoscroll
font size
0
reset
how to read this tab
guitar tuner
Autoscroll
slow
fast
+/-
esc
set tempo
stop
Help us to improve Ultimate-Guitar.com Take our survey!
×
Author
Sick Of Life
-------------
                           gtr 1 (C,G,C,F,A,D)
band-Godsmack              gtr 2 (C,G,C,F,A,D)
song-Sick Of Life
album-Awake
year-2000
tabbed by-Bennyhill64

.-palm mute
/-slide
**-everything between these mark things are 
natarul harmonics

this song has an awesome intro

first it starts out with this weird crap
then symbols come in then bass then...

Riff 1A (gtr 1 & 2)
|-------------------------------|
|-------------------------------|
|-------------------------------|
|3-0-0-0-5-0-0-8-0-0-0-3-0-0-0--|
|-------------------------------|
|-------------------------------|
 . . . . . . . . . . . . . . .

both gtrs play Riff 1A 2x then
it's Riff 1B 2x

Riff 1B (gtr 1 & 2)
|--------------------------------|
|--------------------------------|
|--------------------------------|
|--------------------------------|
|3-0-0-0-5-0-0-8-0-0-0-3-0-0-0---|
|3-0-0-0-5-0-0-8-0-0-0-3-0-0-0---|

yeah!!!!!!!!!!!!!!!!!!!!!!!!!!

Riff 1B (gtr 1 & 2)
|--------------------------------|
|--------------------------------|
|--------------------------------|
|--------------------------------|
|3-0-0-0-5-0-0-8-0-0-0-3-0-0-0---|
|3-0-0-0-5-0-0-8-0-0-0-3-0-0-0---|

then gtrs 1 & 2 play Riff 1B 3x
then it's Riff 1B (continued)

Riff 1B (continued)(gtrs 1& 2)
|-------------------------------|
|-------------------------------|
|--------------------*5-5-5-5*--|
|-------------------------------|
|3-0-0-0-5-0-0-8----------------|
|3-0-0-0-5-0-0-8----------------|

then it's Riff 1B 3 more times then

verse (gtrs 1 & 2)
|-----------------------------------------------------|
|-----------------------------------------------------|
|-----------------------------------------------------|
|-----------------------------------------------------|
|3-0-0-3-0-0-5------3-0-0-0-5-0-0-8-0-0-0-3-0-0-0-----|
|3-0-0-3-0-0-5------3-0-0-0-5-0-0-8-0-0-0-3-0-0-0-----|
 . . . . . . .      . . . . . . . . . . . . . . .
paralyzed
nothing's getting through to me
hypnotized
from all of my surroundings

(gtrs 1 & 2)
|------------------------------------------------------|
|------------------------------------------------------|
|8-8-8-8------8-8-8-8----------------------------------|
|8-8-8-8------8-8-8-8----------------------------------|
|6-6-6-6------6-6-6-6-3-0-0-0-5-0-0-8-0-0-0-3-0-0-0----|
|---------------------3-0-0-0-5-0-0-8-0-0-0-3-0-0-0----|
                      . . . . . . . . . . . . . . .
i want to be
something i could never be
i want to say
the things that i could never say

pre-chorus (gtrs 1 & 2)
|-----------------------------------|
|-----------------------------------|
|-----------------------------------|
|-----------------------------------|
|0-5-5/6-6/8-8\6-6-6\5-5-5----------|
|0-5-5/6-6/8-8\6-6-6\5-5-5----------|
yeah, i'm gonna do it again
i'm gonna do it again
i'm gonna do it again

chorus (gtrs 1 & 2)
|--------------------------------|
|--------------------------------|
|--------------------------------|
|--------------------------------|
|3-0-0-0-5-0-0-8-0-0-0-3-0-0-0---|
|3-0-0-0-5-0-0-8-0-0-0-3-0-0-0---|
sick of my life
i'm tired of everything
even my life

verse (gtrs 1 & 2)
|-----------------------------------------------------|
|-----------------------------------------------------|
|-----------------------------------------------------|
|-----------------------------------------------------|
|3-0-0-3-0-0-5------3-0-0-0-5-0-0-8-0-0-0-3-0-0-0-----|
|3-0-0-3-0-0-5------3-0-0-0-5-0-0-8-0-0-0-3-0-0-0-----|
 . . . . . . .      . . . . . . . . . . . . . . .

dreaded down
rubbing my face in the ground
no more time 
for the undecided

(gtrs 1 & 2)
|------------------------------------------------------|
|------------------------------------------------------|
|8-8-8-8------8-8-8-8----------------------------------|
|8-8-8-8------8-8-8-8----------------------------------|
|6-6-6-6------6-6-6-6-3-0-0-0-5-0-0-8-0-0-0-3-0-0-0----|
|---------------------3-0-0-0-5-0-0-8-0-0-0-3-0-0-0----|
                      . . . . . . . . . . . . . . .
i want to know
why i've always felt alone
i want to love
why am i untouchable

pre-chorus (gtrs 1 & 2)
|-----------------------------------|
|-----------------------------------|
|-----------------------------------|
|-----------------------------------|
|0-5-5/6-6/8-8\6-6-6\5-5-5----------|
|0-5-5/6-6/8-8\6-6-6\5-5-5----------|
yeah, i'm gonna do it again
i'm gonna do it again
i'm gonna do it again

chorus (gtrs 1 & 2)
|--------------------------------|
|--------------------------------|
|--------------------------------|
|--------------------------------|
|3-0-0-0-5-0-0-8-0-0-0-3-0-0-0---|
|3-0-0-0-5-0-0-8-0-0-0-3-0-0-0---|
sick of my life
i'm tired of everything
even my life

(gtrs 1 & 2)
|-------------------|
|-------------------|
|-*5-5-5-5*---------|
|-------------------|
|-------------------|
|-------------------|
i never wanted to be

gtrs 1 & 2
|--------------------------------|
|--------------------------------|
|--------------------------------|
|--------------------------------|
|3-0-0-0-5-0-0-8-0-0-0-3-0-0-0---|
|3-0-0-0-5-0-0-8-0-0-0-3-0-0-0---|
sick of my life
i'm tired of everything
even my life

(gtrs 1 & 2)
|------------------------------------------|
|------------------------------------------|
|8-8-8-8---8-8-8-8---8-8-8-8---8-8-8-8-----|
|7-7-7-7---7-7-7-7---7-7-7-7---7-7-7-7-----|
|6-6-6-6---6-6-6-6---6-6-6-6---6-6-6-6-----|
|------------------------------------------|

gtr 1
|-----------------------------------------|
|-----------------------------------------|
|8-8-8-8..............--------------------|
|x-x-x-x..............--------------------|
|6-6-6-6..............--------------------|
|-----------------------------------------|

the dots mean that i don't know how many times it is
played but he keeps playing those notes

gtr 2
|---------------------------------------------------------|
|---------------------------------------------------------|
|8-8-8-8---8-8-8-8--8-8-8-8..................-------------|
|7-7-7-7---7-7-7-7--7-7-7-7..................-------------|
|6-6-6-6---6-6-6-6--6-6-6-6..................-------------|
|---------------------------------------------------------|

rrrrrraaaaaaaaagggggghhhhhhhhhh!!!!!!!!!!!!!!!!!!!!!!!!!

SOLO
i dont know the solo
but here is the rythm

|-----------------------------------|
|-----------------------------------|
|-----------------------------------|
|-----------------------------------|
|0-5-5/6-6/8-8\6-6-6\5-5-5----------|
|0-5-5/6-6/8-8\6-6-6\5-5-5----------|

|--------------------------------|
|--------------------------------|
|--------------------------------|
|--------------------------------|
|3-0-0-0-5-0-0-8-0-0-0-3-0-0-0---|
|3-0-0-0-5-0-0-8-0-0-0-3-0-0-0---|

chorus (gtrs 1 & 2)
|--------------------------------|
|--------------------------------|
|--------------------------------|
|--------------------------------|
|3-0-0-0-5-0-0-8-0-0-0-3-0-0-0---|
|3-0-0-0-5-0-0-8-0-0-0-3-0-0-0---|
sick of my life
i'm tired of everything
even my life

(gtrs 1 & 2)
|-------------------|
|-------------------|
|-*5-5-5-5*---------|
|-------------------|
|-------------------|
|-------------------|
i never wanted to be

|--------------------------------|
|--------------------------------|
|--------------------------------|
|--------------------------------|
|3-0-0-0-5-0-0-8-0-0-0-3-0-0-0---|
|3-0-0-0-5-0-0-8-0-0-0-3-0-0-0---|
sick of my life
i'm tired of everything
even my life

|-----------------------------------------------------|
|-----------------------------------------------------|
|-----------------------------------------------------|
|-----------------------------------------------------|
|3-0-0-3-0-0-5------3-0-0-0-5-0-0-8-0-0-0-3-0-0-0-----|
|3-0-0-3-0-0-5------3-0-0-0-5-0-0-8-0-0-0-3-0-0-0-----|
 . . . . . . .      . . . . . . . . . . . . . . .

well there it is ENJOY!!!!!!!!!!
Suggest correction
What's this?
You can suggest a correction to this tab. Community and Mods will review your correction and vote to approve or reject it.
comments
We did not receive enough feedback on this tab! Please rate:
print report bad tab
1 2 3 4 5
1 comment total.
0 reply
2020vision 2,460 wrote on October 26 2005, 02:17 pm

lol@lyrics

guest
You may want to rate the tab now too:
select rating
Please do not post tabs as comments. Select "correction" instead!