Oops, an error
Loading. Please wait.

Situation Bass Tab

version 1
version 1

Whole song

Interactive

208 views 1 this week
no commentswrite comment
1 2 3 4 5
please rate
add to favorites
launch autoscroll
font size
0
reset
guitar tuner
Tab Pro tools
  • play this tab
  • loop segment
  • change instrument
  • show fretboard
  • metronome
Autoscroll
slow
fast
+/-
esc
set tempo
stop
Difficulty
Tuning
intermediate
D A D G B E
This is a song nobody Tabbed so I decided to do it because its an easy one so here it 
Start playing till 0:17

G---------------------------------|
D---------------------------------|Just keep playing this part till theres a pause
A---------------------------------|
D-1-00-0H1-00-0H1-00-0H1-0H3-1-00-|


G-------| (0:41)
D-------|
A-------|  Hit an open string when sully starts singing
D-0~----|

G------------------------------ (0:46-|
D-------------------------------------| Then hit this when the band starts playing again
A-------------------------------------|
D-1-00-0H1-00-0H1-00-0H1-0H3-1-00-----|

G-------| (0:58)
D-------|
A-------|  Hit an open string again
D-0~----|

G------------------------------| (1:10)
D------------------------------|
A------------------------------|
D-1-00-0H1-00-0H1-00-0H1-0H3-1-|00

G------------------------------|
D------------------------------| (1:39)
A------------------------------|
D-0~---------------------------|

G------------------------------| (1:44)
D------------------------------|
A------------------------------|
D-1-00-0H1-00-0H1-00-0H1-0H3-1-|00

G-----------------------|
D------------0~----///--|
A-----------------------|
D-0~--------------------|
Hit an open string at (1:56) but on this one if you listen 2 it you can hear him hit an 
string on the high D String and slide a little.

G------------------------------|
D------------------------------| (2:07)
A------------------------------|
D-1-00-0H1-00-0H1-00-0H1-0H3-1-|00

This next part is where the song starts changing up

G------------------------------------------|
D----------------------------- (2:36-------|
A------------------------------------------|
D-3-1-0~-0-0-0-0-0-0-0h1-0-0-0-0h3-0-0-0h1-|

Then after thats over play this a couple of times

G----------------------|
D----------------------| (3:14)
A----------------------|
D-0~000~000~0-0~000~000

A when this part comes play this then slide like crazy then play the intro over and over 
till the end of the song

G----------------------|
D----------------------| (3:37)
A----------------------|
D-3~1~0~1////////


G------------------------------|
D------------------------------| (3:42)
A------------------------------|
D-1-00-0H1-00-0H1-00-0H1-0H3-1-|00

G--------------------------------|
D---------------------- (3:37----|
A--------------------------------|
D-3~1~0~1-00-0H1-00-0H1-0H3-1-00-|

G--------------------------------|
D---------------------- (4:20----| This part you get a bass solo
A--------------------------------|
D-3~1~0~1-00-0H1-00-0H1-0H3-1-00-|

G----------------------------------------|
D--------------------------------- (4:43-|
A----------------------------------------|
D-//0-0-0-0--00-0H1-00-0H1-0H3-1-00------|

Just keep playing till the end of the song.... its real easy if you listen to it

G----------------------------------|
D----------------------------------|
A----------------------------------|
D-1-00-0H1-00-0H1-0H3-1-00---------|

This was my first tabb so plz comment on it  peace out every1!!!
comments
We did not receive enough feedback on this tab! Please rate:
print report bad tab
1 2 3 4 5
I want to post or [tab]
guest
You may want to rate the tab now too:
select rating
Please do not post tabs as comments. Select "correction" instead!