Oops, an error
Loading. Please wait.

Someone In London Tab

version 4
version 4

Whole song

Interactive

473 views 1 this week
no commentswrite comment
1 2 3 4 5
1 last vote to show rating
add to favorites
launch autoscroll
font size
0
reset
how to read this tab
guitar tuner
Autoscroll
slow
fast
+/-
esc
set tempo
stop
Help us to improve Ultimate-Guitar.com Take our survey!
×
          
|----------------------------------------------------------|
|----------------------------------------------------------|
|--------^------------7--------------^---------------------|===
|--------6---------------5-----------6----------0-----0----|   |
|-----5-------8---5---------------5------------------------|   |
|--0---------------------------0-------------3-----2-------|   |
                                                               | X4
                                                               |
|---------------------------------------------|                |
|---------------------------------------------|=================
|---------------------7-----------------------|
|--------6---------------5-------0----0----0--|
|-----5-------8---5------------3-----2--------|
|--0-------------------------3------2----1----|


|----------------------------------------------------------|
|----------------------------------------------------------|
|--------^------------7--------------^---------------------|
|--------6---------------5-----------6----------0-----0----|
|-----5-------8---5---------------5------------------------|
|--0---------------------------0-------------3-----2-------|


|----------------------------------------------|                
|----------------------------------------------|
|--------^--------7----------------------------|
|--------6---------------5--------0----0----0--|
|-----5-------------------------3-----2--------|
|--0--------------------------3------2----1----|


|----------------------------------------------------------|
|----------------------------------------------------------|
|--------^------------7--------------^---------------------|
|--------6---------------5-----------6----------0-----0----|   
|-----5-------8---5---------------5------------------------|   
|--0---------------------------0-------------3-----2-------|   
                                                               
                                                               
|------------------------------------------------------|                
|------------------------------------------------------|
|---------------------7--------------------------------|
|--------6---------------5-------0----0----0-----0-----|
|-----5-------8---5------------3-----2-----------0-----|
|--0-------------------------3------2----1-------0-----|
                            |----------------|X3

Suggest correction
Give kudos to tab author, rate the tab!
1 2 3 4 5
comments
print report bad tab
guest
You may want to rate the tab now too:
select rating
Wanna post a correction for this tab? Suggest correction