Oops, an error
Loading. Please wait.

Speak Bass Tab

version 1
version 1

Whole song

Interactive

4,255 views 12 this week
3 commentsread comments
1 2 3 4 5
excellent!
x 4
add to favorites
launch autoscroll
font size
0
reset
guitar tuner
Autoscroll
slow
fast
+/-
esc
set tempo
stop
Help us to improve Ultimate-Guitar.com Take our survey!
×
Author
----------------------------------------------------------------------------
			     Speak - Godsmack
----------------------------------------------------------------------------

Tabbed By : _godsmack_
e-mail: pearson1991@hotmail.com

Tuning: G D A D
Great song by a kick ass band. The bass part is played very quickly since it follows the
in some parts. Hardest part about this song is keeping your hand from dying if you dont
a pick. Im pretty sure everything is right except maybe the timing, but if anything is 
email me and ill fix it. Also the [x3] above the repeats is how many times to play
not how many times to repeat it. =Note= I rewrote this so the lines wouldnt be where 
shouldnt be and itd be easier to read.

  Intro [x2][:05 = :24]    (x3)
G|--------------------------||-------------|-------------------------------|
D|-------------------------.||-------------|-------------------------------|
A|-------------------------.||---------3~--|-------------------------------|
D|-1-00000-1-000-33-11-000--||-1-00000-----|-------------------------------|

   Verse [x7] [:25 = :41]      Prelude [:42 = :44]
G|----------------------------||-------------|-----------------------------|
D|----------------------------||-------------|-----------------------------|
A|----------------------------||-3-3-3-------|-----------------------------|
D|-1-00000-1-000-33-11-000----||-------1-1-1-|-----------------------------|

    Chorus [x4]  [:45 = 1:04]
G|-------------------|----------------------|------------------------------|
D|-------------------|----------------------|------------------------------|
A|-------------------|-3333-3333-1111-1333--|------------------------------|
D|0000-0000-0000-0000|----------------------|------------------------------|

   Verse [x11] [1:05 = 1:30]   Prelude [1:31 = 1:33]
G|----------------------------||-------------|-----------------------------|
D|----------------------------||-------------|-----------------------------|
A|----------------------------||-3-3-3-------|-----------------------------|
D|-1-00000-1-000-33-11-000----||-------1-1-1-|-----------------------------|

 Chorus [x8]  [1:34 = 2:12]
G|-------------------|---------------------|-------------------------------|
D|-------------------|---------------------|-------------------------------|
A|-------------------|-3333-3333-1111-1333-|-------------------------------|
D|0000-0000-0000-0000|---------------------|-------------------------------|

   Bridge [x4] [2:13 = 2:32]
G|-------|-----------|-----------------------------------------------------|
D|-------|-----------|-----------------------------------------------------|
A|-------|--3~---1~--|-----------------------------------------------------|
D|-0~----|-----------|-----------------------------------------------------|

   Solo [x8]  [2:33 = 2:52]
G|-------------------------|-----------------------------------------------|
D|-------------------------|-----------------------------------------------|
A|-------------------------|-----------------------------------------------|
D|-1-00000-1-000-33-11-000-|-----------------------------------------------|

   Chorus [x8]  [2:53 = 2:12]
G|-------------------|---------------------|-------------------------------|
D|-------------------|---------------------|-------------------------------|
A|-------------------|-3333-3333-1111-1333-|-------------------------------|
D|0000-0000-0000-0000|---------------------|-------------------------------|

   Verse [x7]  [2:12 = end]
G|-------------------------|-----------------------------------------------|
D|-------------------------|-----------------------------------------------|
A|-------------------------|-----------------------------------------------|
D|-1-00000-1-000-33-11-000-|-----------------------------------------------|
Suggest correction
comments
print report bad tab
3 comments total.
0 reply
_godsmack_ 370 wrote on August 28 2006, 05:21 pm

it did this on all my tabs...ha ignore the first line next to the timing, it shouldnt be there...rest looks fine though

0 reply
_godsmack_ 370 wrote on August 28 2006, 05:35 pm

oh and the intro should be:

-Intro- (x2) (:05 - :24) (x3)
G|--------------------------||-------------|---------------------------------|
D|-------------------------.||-------------|---------------------------------|
A|-------------------------.||---------3~--|---------------------------------|
D|-1-00000-1-000-33-11-000--||-1-00000-----|---------------------------------|

0 reply
__Ronnie__ 999 wrote on January 22 2007, 12:06 pm

This tab is great, good job! :)

guest
You may want to rate the tab now too:
select rating
Please do not post tabs as comments. Select "correction" instead!