Oops, an error
Loading. Please wait.

Speak Tab

version 1
version 1

Whole song

Interactive

13,711 views 15 this week
8 commentsread comments
1 2 3 4 5
accurate
x 6
add to favorites
launch autoscroll
font size
0
reset
how to read this tab
guitar tuner
Autoscroll
slow
fast
+/-
esc
set tempo
stop
Help us to improve Ultimate-Guitar.com Take our survey!
×
Author
Difficulty
Speak
Godsmack
Track number 2 from IV
Tunning: Standard drop D (DADGBE); Or as Godsmack play it: 1 full step down drop C (CGCFAD)
This son is played is 2 guitars, each one of them is highly distorted

Guitar 1: played by Sully
Guitar 2: Played by Tony (also connected to a Wah-Wah for the solo and the outro)

I SEARCHED ALL THE NET FOR THIS TAB, I COULDNT FOUND IT SO I TABBED IT MY SELF, IS 
EASY AND FUN TO PLAY, I HOPE YOU GUYS LIKE IT, RATE THIS PLEASE, I KNOW IT SOUNDS PRETTY 
TO THE REAL DEAL

Intro (both guitars play the same)

e||-----------------------------||     e||------------(x)--||
B||-----------------------------||     B||------------(3)--||
G||-----------------------------|| x3  G||-------------5---||
D||--1p0--------1p0-------------||     D||--1p0--------5---||
A||--1p0--0-0---1p0--3-1-0-(0)--||     A||--1p0--0-0---3---||
D||--1p0--0-0---1p0--3-1-0-(0)--||     D||--1p0--0-0--(5)--||

e||-----------------------------||     e||------------x---||
B||-----------------------------||     B||------------13--||
G||-----------------------------|| x3  G||------------12--||
D||--1p0--------1p0-------------||     D||--1p0-------10--||
A||--1p0--0-0---1p0--3-1-0-(0)--||     A||--1p0--0-0--10--||
D||--1p0--0-0---1p0--3-1-0-(0)--||     D||--1p0--0-0--10--||

Verse (Guitar 1: out)(Guitar 2: Keeps on playing the main riff)

e||-----------------------------||
B||-----------------------------||
G||-----------------------------|| x7
D||--1p0--------1p0-------------||
A||--1p0--0-0---1p0--3-1-0-(0)--||
D||--1p0--0-0---1p0--3-1-0-(0)--||


Pre-chorus (both guitars play the same)
e||-----------------||
B||-----------------||
G||--3---------5----||
D||--3-3--3/5--5-5--||
A||--1-1--1/3--3-3--||
D||-----------------||


Chorus 1

    Guitar 1
e||--------------------|----------|-------------||
B||--------------------|----------|-------------||
G||--7--7-7-7--7--7-7--|--5--5-5--|--3--3-3--3--|| x4
D||--7--7-7-7--7--7-7--|--5--5-5--|--3--3-3--3--||
A||--5--5-5-5--5--5-5--|--3--3-3--|--1--1-1--1--||
D||--0------0--0-------|----------|-------------||

 Guitar 2
e||--------------------|----------|-------------||
B||--------------------|----------|-------------||
G||--7--7-7--7-7-----7-|--5--5----|--3--3----3--|| x4
D||--7--7-7----7-7-----|--5-------|--3-------3--||
A||--5--5-5-5--5---5---|--3----3--|--1----1--1--||
D||--0---------0-------|----------|-------------||


Pre-verse (both guitars play the same)
e||-----------------------------||     e||------------------------------||
B||-----------------------------||     B||------------------------------||
G||-----------------------------|| x3  G||------------------------------||
D||--1p0--------1p0-------------||     D||--1p0-------1p0-------1p0-----||
A||--1p0--0-0---1p0--3-1-0-(0)--||     A||--1p0--0-0--1p0--0-0--1p0--0--||
D||--1p0--0-0---1p0--3-1-0-(0)--||     D||--1p0--0-0--1p0--0-0--1p0--0--||

Verse (Guitar 1: out)(Guitar 2: Keeps on playing the main riff)

e||-----------------------------||
B||-----------------------------||
G||-----------------------------|| x7
D||--1p0--------1p0-------------||
A||--1p0--0-0---1p0--3-1-0-(0)--||
D||--1p0--0-0---1p0--3-1-0-(0)--||

Pre-chorus (both guitars play the same)
e||-----------------||
B||-----------------||
G||--3---------5----||
D||--3-3--3/5--5-5--||
A||--1-1--1/3--3-3--||
D||-----------------||

Chorus 2

    Guitar 1
e||--------------------|----------|-------------||
B||--------------------|----------|-------------||
G||--7--7-7-7--7--7-7--|--5--5-5--|--3--3-3--3--|| x8
D||--7--7-7-7--7--7-7--|--5--5-5--|--3--3-3--3--||
A||--5--5-5-5--5--5-5--|--3--3-3--|--1--1-1--1--||
D||--0------0--0-------|----------|-------------||

 Guitar 2
e||--------------------|----------|-------------||
B||--------------------|----------|-------------||
G||--7--7-7--7-7-----7-|--5--5----|--3--3----3--|| x8
D||--7--7-7----7-7-----|--5-------|--3-------3--||
A||--5--5-5-5--5---5---|--3----3--|--1----1--1--||
D||--0---------0-------|----------|-------------||

Bridge

 Guitar 1
e||--------------------|--------|-------------||
B||--------------------|--------|-------------||
G||--7-----------------|--5-----|--3----------|| x3
D||--7-----------------|--5-----|--3----------||
A||--5-----------------|--3-----|--1----------||
D||--0-----------------|--------|-------------||

 Guitar 2
e||--------------------|--------|-------------------||
B||-----10----10---10--|-----8--|-----6-------------||
G||--7-----7-----7-----|--5-----|--3-----3./5.(/7)--|| x3
D||--------------------|--------|-------------------||
A||--------------------|--------|-------------------||
D||--------------------|--------|-------------------||

Then

e||--------------------|---------|-----------||
B||--------------------|---------|-----------||
G||--7-----------------|--5------|--3--------|| x1
D||--7-----------------|--5------|--3--------||
A||--5-----------------|--3------|--1--------||
D||--0-----------------|---------|-----------||

 Guitar 2
e||--------------------|---------|-----------||
B||-----10----10---10--|---------|-----------||
G||--7-----7-----7-----|--5-5-5--|--3-3-3-3--|| x1
D||--------------------|--5-5-5--|--3-3-3-3--||
A||--------------------|--3-3-3--|--1-1-1-1--||
D||--------------------|---------|-----------||

Guitar Solo (Guitar 2)(Use a lot of Wah-Wah)(I don`t think its OK but its a start)

e||--x----------------------------|------------------------------|------------------------------------||
B||--10/10^10/10^10/10^10/10--|--9./9.^9./9.^9./9.^9./9--|--/11.b(13).r11--11-10-8---------11---------||
G||--9./9.^9./9.^9./9.^9./9---|--8./8.^8./8.^8./8.^8./8--|----------------------------8-10----8-10-12-||
D||--x----------------------------|------------------------------|--------------------------8---------||
A||--x---------Wah-Wah------------|----------Wah-Wah-------------|------------------------------------||
D||--x---------patern-------------|----------patern--------------|------------------------------------||

e||-----------------------------------------------------|-----------------------------||
B||-----------------------------------------------------|-----------------------------||
G||--12.b(14).r12--12.b(14)-12.b(14)-12.b(14)-12.b(14)--|---7p6-7...v------4-6h7...v--||
D||-----------------------------------------------------|--------------6h8------------||
A||-----------------------------------------------------|-----------------------------||
D||-----------------------------------------------------|-----------------------------||

    Faster part
e||---------------------------------------------------------------------||
B||---------------------------------------------------------------------||
G||---------6h7h9--12.b(13).r12--9-12-9--9-11-9----------9-12-----------||
D||--6h7h9---------------------------------------9h11h12-------11p9-12--||
A||---------------------------------------------------------------------||
D||---------------------------------------------------------------------||

Solo Rhythm Backing (Guitar 1)
e||--------------------|----------|-------------||
B||--------------------|----------|-------------||
G||--7--7-7-7--7--7-7--|--5--5-5--|--3--3-3--3--|| x4
D||--7--7-7-7--7--7-7--|--5--5-5--|--3--3-3--3--||
A||--5--5-5-5--5--5-5--|--3--3-3--|--1--1-1--1--||
D||--0------0--0-------|----------|-------------||

Final Chorus


    Guitar 1
e||--------------------|----------|-------------||
B||--------------------|----------|-------------||
G||--7--7-7-7--7--7-7--|--5--5-5--|--3--3-3--3--|| x8
D||--7--7-7-7--7--7-7--|--5--5-5--|--3--3-3--3--||
A||--5--5-5-5--5--5-5--|--3--3-3--|--1--1-1--1--||
D||--0------0--0-------|----------|-------------||

 Guitar 2
e||--------------------|----------|-------------||
B||--------------------|----------|-------------||
G||--7--7-7--7-7-----7-|--5--5----|--3--3----3--|| x8
D||--7--7-7----7-7-----|--5-------|--3-------3--||
A||--5--5-5-5--5---5---|--3----3--|--1----1--1--||
D||--0---------0-------|----------|-------------||

Outro

Part 1 (Both guitar play the same)

e||-----------------------------||
B||-----------------------------||
G||-----------------------------|| x4
D||--1p0--------1p0-------------||
A||--1p0--0-0---1p0--3-1-0-(0)--||
D||--1p0--0-0---1p0--3-1-0-(0)--||


Part 2

   Guitar 1
e||-----------------------------||
B||-----------------------------||
G||-----------------------------|| x4
D||--1p0--------1p0-------------||
A||--1p0--0-0---1p0--3-1-0-(0)--||
D||--1p0--0-0---1p0--3-1-0-(0)--||

   Guitar 2 (hight vibrate each Chord, they must last as long as the riff is been played once)
            (use a little Wah-Wah for this)
e||---------------|--------------|----------------|----------------||
B||---------------|--------------|----------------|----------------||
G||---7.....(7)v--|--8.....(8)v--|--10.....(10)v--|--14.....(14)v--||
D||---x-----------|--x-----------|--x-------------|----------------||
A||---5.....(5)v--|--6.....(6)v--|--8......(8)v---|--12.....(12)v--||
D||---------------|--------------|----------------|----------------||
Suggest correction
comments
print report bad tab
8 comments total. Showing first comments.
0 reply
irishmatt1992 885 wrote on April 15 2006, 11:48 pm

hey, this isn't bad at all, i think it's pretty acurate, i don't have no whammy efx so i'm not gonna try the solo out, leave that to some one else

0 reply
goddddddddddd 10 wrote on May 10 2006, 04:16 pm

hey nice but i need the tunning does anyone know it?

0 reply
goddddddddddd 10 wrote on May 10 2006, 04:16 pm

neaver mind i found it

guest
You may want to rate the tab now too:
select rating
Please do not post tabs as comments. Select "correction" instead!