Oops, an error
Loading. Please wait.

Speak Bass Tab

version 2
version 2

Whole song

Interactive

543 views 1 this week
no commentswrite comment
1 2 3 4 5
please rate
add to favorites
launch autoscroll
font size
0
reset
guitar tuner
Autoscroll
slow
fast
+/-
esc
set tempo
stop
Help us to improve Ultimate-Guitar.com Take our survey!
×
Author
Difficulty
Tuning
intermediate
D A D G B E
Tabbed By Daniel Corrigan:

Into-0:05
G-----------------------------------------|
D-----------------------------------------|
A-----------------------------------------|
D-3-2--3-0-3-2-6-5-3--3-2--3-0-3-2-6-5-3--|

G-----------------------------------------|
D-----------------------------------------|
A-----------------------------------------|X3
D-3-2--3-0-3-2-6-5-3--3-2--3-0-3-5~~~-----|

Verse-0:24(same as into without last note)
G-------------------|
D-------------------|
A-------------------|X5
D-3-2--3-0-3-2-6-5-3|

Pre-Chorus-0:41
G---------|
D---------|
A---------|X1
D-2~~-5~~-|

Chorus-0:44
G----------------------------|
D----------------------------|
A----------------------------|X2
D-3~-5~-1~-2~-2~-4~-5~-7~-5-3|

Re-Intro-1:04
G-----------------------------------------|
D-----------------------------------------|
A-----------------------------------------|
D-3-2--3-0-3-2-6-5-3--3-2--3-0-3-2-6-5-3--|

G-------------------|
D-------------------|
A-------------------|X1
E-3-2-2-0--3-2-2-0-3|

Verse-1:12
G-------------------|
D-------------------|
A-------------------|X7
D-3-2--3-0-3-2-6-5-3|

Pre-Chorus-1:30
G---------|
D---------|
A---------|X1
D-2~~-5~~-|

Chorus-1:33
G----------------------------|
D----------------------------|
A----------------------------|X4
D-3~-5~-1~-2~-2~-4~-5~-7~-5-3|

Bridge-2:13 
G----------------|
D----------------|
A----------------|X3
D-3~~~-2~~~-0~~~-|

G---------------|
D---------------|
A---------------|
D-3~~-0-1~~-3~~-|

Solo-2:34(same as verse)
G-----------------------------------------|
D-----------------------------------------|
A-----------------------------------------|
D-3-2--3-0-3-2-6-5-3--3-2--3-0-3-2-6-5-3--|

G-----------------------------------------|
D-----------------------------------------|
A-----------------------------------------|
D-3-2--3-0-3-2-6-5-3--3-2--3-0-3-2-6-5-3--|

G-----------------------------------------|
D-----------------------------------------|
A-----------------------------------------|
D-3-2--3-0-3-2-6-5-3--3-2--3-0-3-2-6-5-3--|

G-------------------------|
D-------------------------|
A-------------------------|
D-3-2--3-0-3-2-6-5-3--3-2-|

G---------|
D---------|
A---------|X1
D-2~~-5~~-|

Chorus-2:53
G----------------------------|
D----------------------------|
A----------------------------|X4
D-3~-5~-1~-2~-2~-4~-5~-7~-5-3|

Outro-3:33
G---------------------|
D---------------------|
A---------------------|X7
D-3-2--3-0-3-2-6-5-3--|

Any comments/concerns/suggestoins Contact me at 
d_snowboard@hotmail.com
Suggest correction
Give kudos to tab author, rate the tab!
1 2 3 4 5
comments
print report bad tab
guest
You may want to rate the tab now too:
select rating
Wanna post a correction for this tab? Suggest correction