Oops, an error
Loading. Please wait.

Speak Tab

version 2
version 2

Whole song

Interactive

5,877 views 3 this week
4 commentsread comments
1 2 3 4 5
x 6
add to favorites
launch autoscroll
font size
0
reset
how to read this tab
guitar tuner
Autoscroll
slow
fast
+/-
esc
set tempo
stop
Help us to improve Ultimate-Guitar.com Take our survey!
×
-----------------------------------------------------------------------------
                            GODSMACK-SPEAK

----------------------------------------------------------------------------
Tabbed by:Chris
Email: ipissedmyself9@aol.com
tuning: c-g-c-f-a-d

| /  slide up
| \  slide down
| h  hammer-on
| p  pull-off
| ~  vibrato
| +  harmonic
| x  Mute note
|p.m   palm mute


Intro x2
          p.m-     p.m-   
e|------------------------------------|x2
B|------------------------------------|
G|------------------------------------|
D|-3p2-2-2------3p2----5-x-3-x-2-x-2--|
A|-3p2-2-2------3p2----5-x-3-x-2-x-2--|
E|-3p2-2-2-2-2--3p2-2--5-x-3-x-2-x-2--|


          p.m-     p.m
e|-------------------------------------------------------|
B|-------------------------------------------------------|
G|---------------------------------------------2-2-------|
D|-3p2-2-2------3p2----5-x-3-x-2-x-2--3p2-2-2--0-0-------|
A|-3p2-2-2------3p2----5-x-3-x-2-x-2--3p2-2-2--0-0-------|
E|-3p2-2-2-2-2--3p2-2--5-x-3-x-2-x-2--3p2-2-2--0-0-------|

verse (its long)

p.m-----------------------------------------------------------------|
e|-----------------------------------|--------------------------------------|
B|-----------------------------------|--------------------------------------|
G|-----------------------------------|--------------------------------------|
D|-3p2-2-2------3p2----5-x-3-x-2-x-2-|-3p2-2-2------3p2---3-x-2-x-0---------|
A|-3p2-2-2------3p2----5-x-3-x-2-x-2-|-3p2-2-2------3p2---3-x-2-x-0---------|
E|-3p2-2-2-2-2--3p2-2--5-x-3-x-2-x-2-|-3p2-2-2-2-2--3p2-2-3-x-2-x-0---------|


p.m-----------------------------------------------------------------|
e|-----------------------------------|--------------------------------------|
B|-----------------------------------|--------------------------------------|
G|-----------------------------------|--------------------------------------|
D|-3p2-2-2------3p2----5-x-3-x-2-x-2-|-3p2-2-2------3p2---0---0---0---------|
A|-3p2-2-2------3p2----5-x-3-x-2-x-2-|-3p2-2-2------3p2---0---0---0---------|
E|-3p2-2-2-2-2--3p2-2--5-x-3-x-2-x-2-|-3p2-2-2-2-2--3p2-2-0-0-0-0-0---------|



p.m--------------------------------------------------------------------|
e|-----------------------------------|--------------------------------------|
B|-----------------------------------|--------------------------------------|
G|-----------------------------------|--------------------------------------|
D|-3p2-2-2------3p2----5-x-3-x-2-x-2-|-3p2-2-2------3p2---3-x-2-x-0---------|
A|-3p2-2-2------3p2----5-x-3-x-2-x-2-|-3p2-2-2------3p2---3-x-2-x-0---------|
E|-3p2-2-2-2-2--3p2-2--5-x-3-x-2-x-2-|-3p2-2-2-2-2--3p2-2-3-x-2-x-0-0-0-----|

          p.m-     p.m-   
e|--------------------------------------|-----------------------|
B|--------------------------------------|-----------------------|
G|------------------------------------0-|-2--2--2--/5--5--0--0--|
D|-3p2-2-2------3p2----5-x-3-x-2-x-2--0-|-0--0--0--/3--3--0--0--|
A|-3p2-2-2------3p2----5-x-3-x-2-x-2--0-|-0--0--0--/3--3--0--0--|
E|-3p2-2-2-2-2--3p2-2--5-x-3-x-2-x-2--0-|-0--0--0--/3--3--0--0--|


Chorus

e|---------------------------------------------------------------|
B|---------------------------------------------------------------|
G|---------------------------------------------------------------|
D|-9-9-9-9-9-9-10-10-10-10-10-9-9--7-7-7-7-7-7-5--5-5-5-5-7-7----|
A|-7-7-7-7-7-7-7---7--7--7--7-7-7--5-5-5-5-5-5-3--3-3-3-3-5-5----|
E|---------------------------------------------------------------|


bridge
let ring through out
e|---------------------------------------------------------|
B|---12-----12----12---10----8-8/10----12---12---12--------|
G|-9-----9-----9-----7----5----5/7---9----9----9-----------|
D|---------------------------------------------------------|
A|---------------------------------------------------------|
E|---------------------------------------------------------|

E|-------------------------------------------------------------------|
B|---10-----8--8/----12---12---12----10----8--8/10---12---12---------|
G|-7-----5-----5/--9----9----9-----7----5-----5/7--9----9-----7-7-10-|
D|------------------------------------------------------------7-7-10-|
A|------------------------------------------------------------5-5-8--|
E|-------------------------------------------------------------------|


solo(w/wah wah)

e|-/12-12-12-12-12-12-12-----12-12-12-12-12-12-12-------------------------|
B|-/12-12-12-12-12-12-12-----11-11-11-11-11-11-11---12-12-12-12-12-12-12--|
G|--------------------------------------------------12-12-12-12-12-12-12--|
D|------------------------------------------------------------------------|
A|------------------------------------------------------------------------|
E|------------------------------------------------------------------------|


e|-----------------------------------------------12------------------------|
B|-12-12-12-12-12-12---12-12-12-12-12-----15b----15p12h15p12---------------|
G|-9--9--9--9--9--9----12-12-12-12-12-----------------------15p14h15p14p12-|
D|-------------------------------------------------------------------------|
A|-------------------------------------------------------------------------|
E|-------------------------------------------------------------------------|

                                                  
e|---------------------------------------------------------------------|
B|---------------------------------------------------------------------|
G|--12-14b-(14)-14b-14b-14b--(14)\---2b--2h3-3b-2~-2p0--0h2p0-0h2-0-4/-|
D|14---------------------------------------------------2-----2---------|
A|---------------------------------------------------------------------|
E|---------------------------------------------------------------------|


e|----------------------------------------------------|
B|-12-14-14-12---12--14-14p12--12--14p12--12----------|
G|-12-14-14-12---12--14-14p12--12--14p12--12----------|
D|-------------14--14--------14--14-----14------------|
A|----------------------------------------------------|
E|----------------------------------------------------|

Outro

e|--0--0--0----0--0--0----0--0--0--0--0--0--0--0--0--0--0--0--0--0--0--0--0-|
B|-12-12-12---12-12-12---12-12-12-12-12-12-12-13-13-13-13-13-13-13-13-13-13-|
G|--------------------------------------------------------------------------|
D|--------------------------------------------------------------------------|
A|--------------------------------------------------------------------------|
E|--------------------------------------------------------------------------|

e|--0--0--0---0--0--0---0--0--0--0--0--0--0--0--0--0---0--0--0--0---0---0---|
B|-15-15-15--15-15-15--15-15-15-15-15-15-15/17-17-17--17-17-17-17--17--17---|
G|--------------------------------------------------------------------------|
D|--------------------------------------------------------------------------|
A|--------------------------------------------------------------------------|
E|--------------------------------------------------------------------------|



Suggest correction
comments
print report bad tab
4 comments total. Showing first comments.
0 reply
johnm2k6 10 Jul 31, 2006 04:45 PM

really good tab, this song kicks a**, godsmack kicks a**, and this tab kicks a**

0 reply
IF_YUR_555IM666 10 Aug 03, 2006 10:11 PM

knot bad !!

0 reply
johnm2k6 10 Sep 01, 2006 09:51 AM

perfect thanx

guest
You may want to rate the tab now too:
select rating
Wanna post a correction for this tab? Suggest correction