Oops, an error
Loading. Please wait.

Speak Bass Tab

version 3
version 3

Whole song

Interactive

787 views 1 this week
no commentswrite comment
1 2 3 4 5
2 more votes to show rating
add to favorites
launch autoscroll
font size
0
reset
guitar tuner
Autoscroll
slow
fast
+/-
esc
set tempo
stop
Help us to improve Ultimate-Guitar.com Take our survey!
×
Difficulty
Tuning
intermediate
D A D G B E
--------------------------------------------------------------------------------------------------
Speak - Godsmack
--------------------------------------------------------------------------------------------------

Tabbed by: DR
Email: rdane@ymail.com
Tuning: (low to high) CGCG
-This song is intermediate because its very demanding for both hands and decently 
fast. An awesome song to play with and I hope Im not to off. 

First is the guitar screech intro, then play when band kicks in.
Intro/Verse 
G|---------------||----||-----||---------------||----||-----||---------|
C|---------------||----||-----||---------------||----||-----||---------|
G|---------------||----||-----||---------------||----||-----||---------|
C|-3222-032-0-532||--X4||-000-||-3222-032-0-532||--X4||-000-||phrase x2|

Chorus
G|---------------------------------------------------------|
C|---------------------------------------------------------|
G|-----|-------------|---3-333-55|--------------|---3-3-555|
C|-333-|2-2222-022-52|000--------|2-2222-022-532|000-5-----|

(Intro phrase {3222-032-0-532}x3 followed by:)
G|-----------|
C|-----------|
G|-----------|
C|-111-0-111-|

Verse
G|---------------||----||-----||---------------||----||-----||---------|
C|---------------||----||-----||---------------||----||-----||---------|
G|---------------||----||-----||---------------||----||-----||---------|
C|-3222-032-0-532||--X4||-000-||-3222-032-0-532||--X4||-000-||phrase x2|

Chorus (X2)
G|---------------------------------------------------------|
C|---------------------------------------------------------|
G|-----|-------------|---3-333-55|--------------|---3-3-555|
C|-333-|2-2222-022-52|000--------|2-2222-022-532|000-5-----|

Breakdown
G|-X2--||guitar thing||-----|
C|-----||------------||-----|
G|1--1-||------------||-----|
C|--2--||------------||-1110|
                     
Solo
G|---------------||----||-----||---------------||----||-----|
C|---------------||----||-----||---------------||----||-----|
G|---------------||----||-----||---------------||----||-----|
C|-3222-032-0-532||--X3||01010||-3222-032-0-532||--X3||00000|

Chorus (X2)
G|---------------------------------------------------------|
C|---------------------------------------------------------|
G|-----|-------------|---3-333-55|--------------|---3-3-555|
C|-333-|2-2222-022-52|000--------|2-2222-022-532|000-5-----|

Outro
G|---------------||----|
C|---------------||----|
G|---------------||----|
C|-3222-032-0-532||--X8|

Thanks for checking this out, again I hope this is correct. If anythings wrong 
please send an email.
Suggest correction
Give kudos to tab author, rate the tab!
1 2 3 4 5
comments
print report bad tab
guest
You may want to rate the tab now too:
select rating
Wanna post a correction for this tab? Suggest correction