Oops, an error
Loading. Please wait.
We have an official Straight Out Of Line tab made by UG professional guitarists. Check out the tab »
×
5,441 views 9 this week
no commentswrite comment
1 2 3 4 5
x 4
add to favorites
×
Save as Personal and add changes to this tab that will be seen only by you. Learn more ›
×
You can save this tab as Personal to edit and correct it or add notes. All changes will be seen only by you. Learn more »
launch autoscroll
font size
0
reset
guitar tuner
backing track
0:00
0:00
edit
Autoscroll
slow
fast
+/-
esc
set tempo
stop
Straight Out Of Line
---------------------

song-  Straight Out Of Line
band-  Godsmack
album- Faceless
year-  2003


Drop C (C G C F)



Intro

|---------------------------------|--------------------------------|
|---------------------------------|--------------------------------|
|---------------------------------|--------------------------------|
|0-2-2-2-0-0-0-2-2-2-0-0-0-2-2-3--|0-2-2-2-0-0-0-2-2-2-0-0-0-2-2-3-|

|---------------------------------|--------------------------------|
|---------------------------------|--------------------------------|
|---------------------------------|--------------------------------|
|0-2-2-2-0-0-0-2-2-2-0-0-0-2-2-3--|0-2-2-2-0-0-0-2-2-2-0-0-0-2-2-3-|

|---------------------------------|--------------------------------|
|---------------------------------|--------------------------------|
|---------------------------------|--------------------------------|
|0-2-2-2-0-0-0-2-2-2-0-0-0-2-2-3--|0-2-2-2-0-0-0-2-2-2-0-0-0-2-2-3-|

|---------------------------------|-------------------------|
|---------------------------------|-------------------------|
|---------------------------------|-------------------------|
|0-2-2-2-0-0-0-2-2-2-0-0-0-2-2-3--|0-2-2-2-0-0-0-2-2-2------|

|-----------------------------|-------------------------------|
|-----------------------------|-------------------------------|
|-----------------------------|-------------------------------|
|0--2-2-2p0-0--2-2-2-0-0-3-3--|0--2-2-2p0-0--2-2-2p0-0-2-2-3--|

|----------------------------|----------------|
|----------------------------|----------------|
|----------------------------|----------------|
|0--2-2-2p0-0--2-2-2-0-0-3---|0---------------|

|----------------------------|-------------------------------|
|----------------------------|-------------------------------|
|----------------------------|-------------------------------|
|0--2-2-2p0-0--2-2-2-0-0-3---|0--2-2-2p0-0--2-2-2p0-0-2-2-3--|

|----------------------------|--------------------------|
|----------------------------|--------------------------|
|----------------------------|--------------------------|
|0--2-2-2p0-0--2-2-2-0-0-3---|0-2-2-2-0-0-0-2-2-2-0-0---|


Verse 1

|---------------------------------|--------------------------------|
|---------------------------------|--------------------------------|
|---------------------------------|--------------------------------|
|0-2-2-2-0-0-0-2-2-2-0-0-0-2-2-3--|0-2-2-2-0-0-0-2-2-2-0-0-0-2-2-3-|

|---------------------------------|--------------------------|
|---------------------------------|--------------------------|
|---------------------------------|--------------------------|
|0-2-2-2-0-0-0-2-2-2-0-0-0-2-2-3--|0-2-2-2-0-0-0-2-2-2-0-0---|

|---------------------------------|--------------------------------|
|---------------------------------|--------------------------------|
|---------------------------------|--------------------------------|
|0-2-2-2-0-0-0-2-2-2-0-0-0-2-2-3--|0-2-2-2-0-0-0-2-2-2-0-0-0-2-2-3-|

|---------------------------------|--------------------------------|
|---------------------------------|--------------------------------|
|---------------------------------|--------------------------------|
|0-2-2-2-0-0-0-2-2-2-0-0-0-2-2-3--|0-2-2-2-0-0-0-2-2-2-0-0-0-2-2-3-|



Chorus 1

|------------------------|-------------------------|
|------------------------|-------------------------|
|------------------------|-------------------------|
|2--2--2-2--2--2-2-2-2-2-|5--5--5-5--5--5-5-5-5-5--|

|------------------------|------------------------|
|------------------------|------------------------|
|5--5--5-5--5--5-5-5-5-5-|------------------------|
|------------------------|3--3--3-3--2-2-2-2--0---|

|------------------------|-------------------------|
|------------------------|-------------------------|
|------------------------|-------------------------|
|2--2--2-2--2--2-2-2-2-2-|5--5--5-5--5--5-5-5-5-5--|

|------------------------|--------------|
|------------------------|--------------|
|5--5--5-5--5--5-5-5-5-5-|--------------|
|------------------------|3-------------|



Interlude

|----------------------------|-------------------------------|
|----------------------------|-------------------------------|
|----------------------------|-------------------------------|
|0--2-2-2p0-0--2-2-2-0-0-3---|0--2-2-2p0-0--2-2-2p0-0-2-2-3--|

|----------------------------|--------------------------|
|----------------------------|--------------------------|
|----------------------------|--------------------------|
|0--2-2-2p0-0--2-2-2-0-0-3---|0-2-2-2-0-0-0-2-2-2-0-0---|



Verse 2

|---------------------------------|--------------------------------|
|---------------------------------|--------------------------------|
|---------------------------------|--------------------------------|
|0-2-2-2-0-0-0-2-2-2-0-0-0-2-2-3--|0-2-2-2-0-0-0-2-2-2-0-0-0-2-2-3-|

|---------------------------------|--------------------------|
|---------------------------------|--------------------------|
|---------------------------------|--------------------------|
|0-2-2-2-0-0-0-2-2-2-0-0-0-2-2-3--|0-2-2-2-0-0-0-2-2-2-0-0---|

|---------------------------------|--------------------------------|
|---------------------------------|--------------------------------|
|---------------------------------|--------------------------------|
|0-2-2-2-0-0-0-2-2-2-0-0-0-2-2-3--|0-2-2-2-0-0-0-2-2-2-0-0-0-2-2-3-|

|---------------------------------|--------------------------------|
|---------------------------------|--------------------------------|
|---------------------------------|--------------------------------|
|0-2-2-2-0-0-0-2-2-2-0-0-0-2-2-3--|0-2-2-2-0-0-0-2-2-2-0-0-0-2-2-3-|



Chorus 2

|------------------------|-------------------------|
|------------------------|-------------------------|
|------------------------|-------------------------|
|2--2--2-2--2--2-2-2-2-2-|5--5--5-5--5--5-5-5-5-5--|

|------------------------|------------------------|
|------------------------|------------------------|
|5--5--5-5--5--5-5-5-5-5-|------------------------|
|------------------------|3--3--3-3--2-2-2-2--0---|

|------------------------|-------------------------|
|------------------------|-------------------------|
|------------------------|-------------------------|
|2--2--2-2--2--2-2-2-2-2-|5--5--5-5--5--5-5-5-5-5--|

|------------------------|----------------------|
|------------------------|----------------------|
|5--5--5-5--5--5-5-5-5-5-|----------------------|
|------------------------|3---3--3---3---3--3---|



Interlude

|----------------------------|-------------------------------|
|----------------------------|-------------------------------|
|----------------------------|-------------------------------|
|0--2-2-2p0-0--2-2-2-0-0-3---|0--2-2-2p0-0--2-2-2p0-0-2-2-3--|

|----------------------------|--------------------------------|
|----------------------------|--------------------------------|
|----------------------------|--------------------------------|
|0--2-2-2p0-0--2-2-2-0-0-3---|0-2-2-2-0-0-0-2-2-2-0-0-0-2-2-3-|

|----------------------------|-------------------------------|
|----------------------------|-------------------------------|
|----------------------------|-------------------------------|
|0--2-2-2p0-0--2-2-2-0-0-3---|0--2-2-2p0-0--2-2-2p0-0-2-2-3--|

|----------------------------|-------------------------------|
|----------------------------|-------------------------------|
|----------------------------|-------------------------------|
|0--2-2-2p0-0--2-2-2-0-0-3---|0--2-2-2p0-0--2-2-2p0-0-2-2-3--|

|----------------------------|-------------------------------|
|----------------------------|-------------------------------|
|----------------------------|-------------------------------|
|0--2-2-2p0-0--2-2-2-0-0-3---|0--2-2-2p0-0--2-2-2p0-0-2-2-3--|

|---------------------------------|--------------------------------|
|---------------------------------|--------------------------------|
|---------------------------------|--------------------------------|
|0-2-2-2-0-0-0-2-2-2-0-0-0-2-2-3--|0-2-2-2-0-0-0-2-2-2-0-0-0-2-2-3-|



Rythm

|------------------------|-------------------------|
|------------------------|-------------------------|
|------------------------|-------------------------|
|2--2--2-2--2--2-2-2-2-2-|5--5--5-5--5--5-5-5-5-5--|

|------------------------|-------------------------|
|------------------------|-------------------------|
|5--5--5-5--5--5-5-5-5-5-|-------------------------|
|------------------------|3--0-3--0-3--0-3--0-3--3-|

|------------------------|-------------------------|
|------------------------|-------------------------|
|------------------------|-------------------------|
|2--2--2-2--2--2-2-2-2-2-|5--5--5-5--5--5-5-5-5-5--|

|------------------------|-----------------------|
|------------------------|-----------------------|
|5--5--5-5--5--5-5-5-5-5-|-----------------------|
|------------------------|3--0-3--0-3---0-3-3--3-|



Chorus 3

|------------------------|-------------------------|
|------------------------|-------------------------|
|------------------------|-------------------------|
|2--2--2-2--2--2-2-2-2-2-|5--5--5-5--5--5-5-5-5-5--|

|------------------------|------------------------|
|------------------------|------------------------|
|5--5--5-5--5--5-5-5-5-5-|------------------------|
|------------------------|3--3--3-3--2-2-2-2--0---|

|------------------------|-------------------------|
|------------------------|-------------------------|
|------------------------|-------------------------|
|2--2--2-2--2--2-2-2-2-2-|5--5--5-5--5--5-5-5-5-5--|

|------------------------|--------------------------------|
|------------------------|--------------------------------|
|5--5--5-5--5--5-5-5-5-5-|--------------------------------|
|------------------------|3--3-3-3-3-3-3-3-3-3-3-3-3-3-3--|



Outro

|----------------------------|-------------------------------|
|----------------------------|-------------------------------|
|----------------------------|-------------------------------|
|0--2-2-2p0-0--2-2-2-0-0-3---|0--2-2-2p0-0--2-2-2p0-0-2-2-3--|

|----------------------------|-------------------------------|
|----------------------------|-------------------------------|
|----------------------------|-------------------------------|
|0--2-2-2p0-0--2-2-2-0-0-3---|0--2-2-2p0-0--2-2-2p0-0-2-2-3--|

|----------------------------|-------------------------------|
|----------------------------|-------------------------------|
|----------------------------|-------------------------------|
|0--2-2-2p0-0--2-2-2-0-0-3---|0--2-2-2p0-0--2-2-2p0-0-2-2-3--|

|----------------------------|-------------------------------|
|----------------------------|-------------------------------|
|----------------------------|-------------------------------|
|0--2-2-2p0-0--2-2-2-0-0-3---|0--2-2-2p0-0--2-2-2p0-0-2-2-3--|

|----------------------------|-------------------------------|
|----------------------------|-------------------------------|
|----------------------------|-------------------------------|
|0--2-2-2p0-0--2-2-2-0-0-3---|0--2-2-2p0-0--2-2-2p0-0-2-2-3--|

|----------------------------|--------------------------------|
|----------------------------|--------------------------------|
|----------------------------|--------------------------------|
|0--2-2-2p0-0--2-2-2-0-0-3---|0-2-2-2-0-0-0-2-2-2-0-0-0-2-2-3-|


tab legend
-----------

p       pull off



well there u go! this is an easy song
on both Bass guitar and regular! Please Rate

            
            
Suggest correction
Creating personal tab
Creating personal tab
You can edit any tab online and save it as your Personal.

You can edit, replace or remove any tab part or add personal notes – all changes will be seen only by you.

Personal tabs can be accessed anytime from any device, even offline.
Learn more »
comments
print report bad tab
guest
You may want to rate the tab now too:
select rating
Wanna post a correction for this tab? Suggest correction