Oops, an error
Loading. Please wait.

Temptation tab

version 1
version 1

Whole song

Interactive

1,605 views 1 this week
1 commentread comment
1 2 3 4 5
x 3
add to favorites
×
Save as Personal and add changes to this tab that will be seen only by you. Learn more ›
×
You can save this tab as Personal to edit and correct it or add notes. All changes will be seen only by you. Learn more »
launch autoscroll
font size
0
reset
how to read this tab
guitar tuner
edit
Autoscroll
slow
fast
+/-
esc
set tempo
stop
Author
Difficulty
-------------------------------------------------------------------------------
                             TEMPTATION - Godsmack
-------------------------------------------------------------------------------
Tabbed by: Scott Moreira
Email: scottymo87@hotmail.com

Tuning: DADGBE

INTRO
e|-------------------------------------------------------------------------|
B|-------------------------------------------------------------------------|
G|-------------------------------------------------------------------------|
D|-------------------------------------------------------------------------|
A|-------------------------------------------------------------------------|
E|0--0-0-3p0-0-0-3p0-0-0-0-6--6-6--0--0-0-3p0-0-0-3p0-0-0-0-1-3-1----------|

e|-------------------------------------------------------------------------|
B|-------------------------------------------------------------------------|
G|-------------------------------------------------------------------------|
D|-------------------------------------------------------------------------|
A|-------------------------------------------------------------------------|
E|0--0-0-3p0-0-0-3p0-0-0-0-6--6-6--0--0-0-3p0-0-0-3------------------------|

e|-------------------------------------------------------------------------|
B|-------------------------------------------------------------------------|
G|-------------------------------------------------------------------------|
D|-------------------------------------------------------------------------|
A|0--0-0-3p0-0-0-3p0-0-0-0-6--6-6--0--0-0-3p0-0-0-3p0-0-0-0-1-3-1----------|
E|0--0-0-3p0-0-0-3p0-0-0-0-6--6-6--0--0-0-3p0-0-0-3p0-0-0-0-1-3-1----------|

e|-------------------------------------------------------------------------|
B|-------------------------------------------------------------------------|
G|----------------------------------------------------------8--8-----------|
D|----------------------------------------------------------8--8-----------|
A|0--0-0-3p0-0-0-3p0-0-0-0-6--6-6--0--0-0-3p0-0-0-3p0-0-0-0-6--6-----------|
E|0--0-0-3p0-0-0-3p0-0-0-0-6--6-6--0--0-0-3p0-0-0-3p0-0-0-0----------------|

e|-------------------------------------------------------------------------|
B|-------------------------------------------------------------------------|
G|-------------------------------------------------------------------------|
D|-------------------------------------------------------------------------|
A|0--0-0-3p0-0-0-3p0-0-0-0-6--6-6--0--0-0-3p0-0-0-3p0-0-0-0-1-3-1----------|
E|0--0-0-3p0-0-0-3p0-0-0-0-6--6-6--0--0-0-3p0-0-0-3p0-0-0-0-1-3-1----------|

e|-------------------------------------------------------------------------|
B|-------------------------------------------------------------------------|
G|-------------------------------------8-----8-----8-----8-----------------|
D|-------------------------------------8-----8-----8-----8-----------------|
A|0--0-0-3p0-0-0-3p0-0-0-0-6--6-6------6-----6-----6-----6-----------------|
E|0--0-0-3p0-0-0-3p0-0-0-0-6--6-6--0-0---0-0---0-0---0-0-------------------|

VERSE (2x)
e|-------------------------------------------------------------------------|
B|-----------------------------3~------------------------------------------|
G|7~-------7\5~----------------2~-------5~-------5\8~----------------------|
D|x--------x-x--------6~-------0~-------x--------x-x-----------------------|
A|5~-------5\3~-------6~-------0~-------3~-------3\6~----------------------|
E|--------------------6~-------0~------------------------------------------|

Chorus (2x)
e|-------------------------------------------------------------------------|
B|-------------------------------------------------------------------------|
G|------------------------------------------------------------------5~-----|
D|------------------------------------------------------------------5~--6~-|
A|0--0-0-3p0-0-0-3p0-0-0-0-6--6-6--0--0-0-3p0-0-0-3p0-0-0-0-6--6-6--3~--6~-|
E|0--0-0-3p0-0-0-3p0-0-0-0-6--6-6--0--0-0-3p0-0-0-3p0-0-0-0-6--6-6------6~-|

VERSE (2x)
e|-------------------------------------------------------------------------|
B|3~---------------------------3~------------------------------------------|
G|2~-------7\5~----------------2~-------5~-------5\8~----------------------|
D|0~-------x-x--------6~-------0~-------x--------x-x-----------------------|
A|0~-------5\3~-------6~-------0~-------3~-------3\6~----------------------|
E|0~------------------6~-------0~------------------------------------------|

Chorus (4x)
e|-------------------------------------------------------------------------|
B|-------------------------------------------------------------------------|
G|------------------------------------------------------------------5~-----|
D|------------------------------------------------------------------5~--6~-|
A|0--0-0-3p0-0-0-3p0-0-0-0-6--6-6--0--0-0-3p0-0-0-3p0-0-0-0-6--6-6--3~--6~-|
E|0--0-0-3p0-0-0-3p0-0-0-0-6--6-6--0--0-0-3p0-0-0-3p0-0-0-0-6--6-6------6~-|

Riff 1
e|-------------------------------------------------------------------------|
B|-------------------------------------------------------------------------|
G|-------------------------------------------------------------------------|
D|6--3--3------------------------------------------------------------------|
A|6--3--3------------------------------------------------------------------|
E|6--3--3------------------------------------------------------------------|
     .  .

Bridge (2x)
e|-------------------------------------------------------------------------|
B|-------------------------------------------------------------------------|
G|7-7-7-7-7-7-101010101010-12-12-12-12-12-12-15-15-15-15-15-15-------------|
D|x-x-x-x-x-x-x-x-x-x-x-x---x--x--x--x--x--x--x--x--x--x--x--x-------------|
A|5-5-5-5-5-5-8-8-8-8-8-8--10-10-10-10-10-10-13-13-13-13-13-13-------------|
E|-------------------------------------------------------------------------|

e|-------------------------------------------------------------------------|
B|-------------------------------------------------------------------------|
G|7-7-7-7-7-7-101010101010-12-12-12-12-12-12-8-8-8-8-10-8------------------|
D|x-x-x-x-x-x-x-x-x-x-x-x---x--x--x--x--x--x-x-x-x-x-x--x------------------|
A|5-5-5-5-5-5-8-8-8-8-8-8--10-10-10-10-10-10-6-6-6-6-8--6------------------|
E|-------------------------------------------------------------------------|

Riff 2
e|-------------------------------------------------------------------------|
B|-------------------------------------------------------------------------|
G|------------------------7-7-7-7-7-7-7-7-7-7-7-7--------------------------|
D|0-0-0-0-0-0-0-0-0-0-0-0-7-7-7-7-7-7-7-7-7-7-7-7--------------------------|
A|0-0-0-0-0-0-0-0-0-0-0-0-5-5-5-5-5-5-5-5-5-5-5-5--------------------------|
E|0-0-0-0-0-0-0-0-0-0-0-0--------------------------------------------------|
  . . . . . . . . . . . . (gradually louder)

Riff 3
e|-------------------------------------------------------------------------|
B|-------------------------------------------------------------------------|
G|-------------------------------------------------------------------------|
D|-------------------------------------------------------------------------|
A|-------------------------------------------------------------------------|
E|0--0-0-3p0-0-0-3p0-0-0-0-6--6-6--0--0-0-3p0-0-0-3------------------------|

Chorus (4x)
e|-------------------------------------------------------------------------|
B|-------------------------------------------------------------------------|
G|------------------------------------------------------------------5~-----|
D|------------------------------------------------------------------5~--6~-|
A|0--0-0-3p0-0-0-3p0-0-0-0-6--6-6--0--0-0-3p0-0-0-3p0-0-0-0-6--6-6--3~--6~-|
E|0--0-0-3p0-0-0-3p0-0-0-0-6--6-6--0--0-0-3p0-0-0-3p0-0-0-0-6--6-6------6~-|

Ending (2x)
e|-------------------------------------------------------------------------|
B|-------------------------------------------------------------------------|
G|-------------------------------------------------------------------------|
D|-------------------------------------------------------------------------|
A|0--0-0-3p0-0-0-3p0-0-0-0-6--6-6--0--0-0-3p0-0-0-3p0-0-0-0-1-3-1----------|
E|0--0-0-3p0-0-0-3p0-0-0-0-6--6-6--0--0-0-3p0-0-0-3p0-0-0-0-1-3-1----------|

e|-------------------------------------------------------------------------|
B|-------------------------------------------------------------------------|
G|-------------------------------------8-----8-----8-----8-----------------|
D|-------------------------------------8-----8-----8-----8-----------------|
A|0--0-0-3p0-0-0-3p0-0-0-0-6--6-6------6-----6-----6-----6-----------------|
E|0--0-0-3p0-0-0-3p0-0-0-0-6--6-6--0-0---0-0---0-0---0-0-------------------|

Ends On
e|---|
B|---|
G|---|
D|-0-|
A|-0-|
E|-0-|

| /  slide up
| \  slide down
| h  hammer-on
| p  pull-off
| ~  let ring
| .  palm mute
| x  Mute note
===============================================================================
Suggest correction
Creating personal tab
Creating personal tab
You can edit any tab online and save it as your Personal.

You can edit, replace or remove any tab part or add personal notes – all changes will be seen only by you.

Personal tabs can be accessed anytime from any device, even offline.
Learn more »
Give kudos to tab author, rate the tab!
1 2 3 4 5
comments
print report bad tab
1 comment total.
0 reply
sonyashadron 10 Dec 30, 2006 07:00 PM

there was a lot of flaws in this its good but not that good the other one is right on

guest
You may want to rate the tab now too:
select rating
Wanna post a correction for this tab? Suggest correction