Oops, an error
Loading. Please wait.

Temptation tab

version 3
version 3

Whole song

Interactive

1,201 views 1 this week
1 commentread comment
1 2 3 4 5
x 4
add to favorites
×
Save as Personal and add changes to this tab that will be seen only by you. Learn more ›
×
You can save this tab as Personal to edit and correct it or add notes. All changes will be seen only by you. Learn more »
launch autoscroll
font size
0
reset
how to read this tab
guitar tuner
edit
Autoscroll
slow
fast
+/-
esc
set tempo
stop
Author
Difficulty
temptation (low to high) DADGBE
                                   *=palm mute     /=slide down   o=open toe wahwah pedal
                                   p=pull off      \=slide up     +=closed toe wahwah pedal
                                   h=hammer on   p.s=pick scrape  fdbk=feed back
                                   T=trem pick     ^=bend
intro (dist)
-------------------------------------------------------------|
-------------------------------------------------------------|
-------------------------------------------------------------|
-------------------------------------------------------------|
-------------------------------------------------------------|
-0-0-0-3^p0-0-3^p0-0-0-0-6-6-6-0-0-0-3^p0-0-3^p0-0-0-0-1h3-1-|

intro 2 (dist)
----------------------------------------------|
----------------------------------------------|
----------------------------------------------|
------------------------------------------0-3-|
------------------------------------------0-3-|
-0-0-0-3^p0-0-3^p0-0-0-0-6-6-6-0-0-0-3^p0-0-3-|

intro 3 (dist)
-------------------------------------------------------------|
-------------------------------------------------------------|
-------------------------------------------------------------|
-------------------------6-6-6-------------------------------|
-------------------------6-6-6-------------------------------|
-0-0-0-3^p0-0-3^p0-0-0-0-6-6-6-0-0-0-3^p0-0-3^p0-0-0-0-1h3-1-|

intro 4 (dist)
-----------------------------------------------------------|
-----------------------------------------------------------|
-------------------------------------------------------8-8-|
-------------------------6-6-6-------------------------7-7-|
-------------------------6-6-6-------------------------6-6-|
-0-0-0-3^p0-0-3^p0-0-0-0-6-6-6-0-0-0-3^p0-0-3^p0-0-0-0-----|

intro 5 (dist)
-------------------------------------------------------------|
-------------------------------------------------------------|
-------------------------------------------------------------|
-------------------------6-6-6-------------------------------|
-------------------------6-6-6-------------------------------|
-0-0-0-3^p0-0-3^p0-0-0-0-6-6-6-0-0-0-3^p0-0-3^p0-0-0-0-1h3-1-|

intro 6 (dist)
----------------------------------------------------------|
----------------------------------------------------------|
-----------------------------------8-----8-----8----------|
-------------------------6-6-6-----7-----7-----7----------|
-------------------------6-6-6-----6-----6-----6----------|
-0-0-0-3^p0-0-3^p0-0-0-0-6-6-6-0-0---0-0---0-0---0-0-/12\-|
                               * *   * *   * *   * *

verse (dist)
--------------------------------------------------------------|
----------------------------------------3---------------------|
-7--(7)--7/-x---5-5---------------------2-x---5-5-(5)/-8-8\-0-|
-x-------7/-x-0-x-x-0-6-6-6-6---------0-0-x-0-5-5-(5)/-8-8\-0-|
-5--(5)--5/-x-0-3-3-0-6---6-----------0-0-x-0-3-3-(3)/-6-6\-0-|
----------------------6---6---0-3^-3^-0-0---------------------|
    fdbk

pre-chorus w/wah-wah
-------------------------------------------------------------------------------------------------|
-------------------------------------------------------------------------------------------------|
-------------------------------------------------------------------------------------------------|
-x-x-x-x-(x)-x-x-x-x-x-(x)-x-x-x-x-x-(x)-x-x-x-x-x-(x)-x-(x)-x-x-x-x-(x)-x-x-x-x-x-(x)-x-x-x-x-x-|
-x-x-x-x-(x)-x-x-x-x-x-(x)-x-x-x-x-x-(x)-x-x-x-x-x-(x)-x-(x)-x-x-x-x-(x)-x-x-x-x-x-(x)-x-x-x-x-x-|
-x-x-x-x-(x)-x-x-x-x-x-(x)-x-x-x-x-x-(x)-x-x-x-x-x-(x)-x-(x)-x-x-x-x-(x)-x-x-x-x-x-(x)-x-x-x-x-x-|
 + o   +  o  +   o   +  o  +   o   +  o  +   o   +  o  +       o   +  o  +   o   +  o  + 
 o   +
pre-chorus cont w/wah-wah
--------------------------------------------------|
--------------------------------------------------|
--------------------------------------------------|
-(x)-x-x-x-x-x-(x)-x--x-x-x-x-x-x-x-x-x-x-x-x-----|
-(x)-x-x-x-x-x-(x)-x--x-x-x-x-x-x-x-x-x-x-x-x-----|
-(x)-x-x-x-x-x-(x)-x--x-x-x-x-x-x-x-x-x-x-x-x-15\-|
  o  +   o   +  o  +
chorus (dist)
-------------------------------------------------------------|
-------------------------------------------------------------|
-------------------------------------------------------------|
-------------------------6-6-6-------------------------6-6-6-|
-------------------------6-6-6-------------------------6-6-6-|
-0-0-0-3^p0-0-3^p0-0-0-0-6-6-6-0-0-0-3^p0-0-3^p0-0-0-0-6-6-6-|

chorus cont (dist)
---------------------------------|
---------------------------------|
-5-5-5-5-5-5-x-------------------|
-5-5-5-5-5-5-x-6-6-6-6-6-6-6-6-6-|
-3-3-3-3-3-3-x-6-6-6-6-6-6-6-6-6-|
---------------6-6-6-6-6-6-6-6-6-|

chorus cont (dist)
--------------------------------------------------------------------|
--------------------------------------------------------------------|
--------------------------------------------------------------5-----|
-------------------------6-6-6-------------------------6-6-6--5--6--|
-------------------------6-6-6-------------------------6-6-6--3--6--|
-0-0-0-3^p0-0-3^p0-0-0-0-6-6-6-0-0-0-3^p0-0-3^p0-0-0-0-6-6-6-----6--|

verse 2 (dist)
--------------------------------0-------------------------|
-3------------------------------3-3-----------------------|
-2------5-5---------------------2---2---5-5-5-x-x-8-8-x-x-|
-0--x\--x-x-0-6-6-6-6---------0-----0---x-x-x-x-x-x-x-x-x-|
-0--x\--3-3-0-6-6-6-6---------0-------0-3-3-3-x-x-6-6-x-x-|
-0--x\------0-6-6-6-6-0-3^-3^-0---------------------------|
   p.s

pre-chorus w/wah-wah
-------------------------------------------------------------------------------------------------|
-------------------------------------------------------------------------------------------------|
-------------------------------------------------------------------------------------------------|
-x-x-x-x-(x)-x-x-x-x-x-(x)-x-x-x-x-x-(x)-x-x-x-x-x-(x)-x-(x)-x-x-x-x-(x)-x-x-x-x-x-(x)-x-x-x-x-x-|
-x-x-x-x-(x)-x-x-x-x-x-(x)-x-x-x-x-x-(x)-x-x-x-x-x-(x)-x-(x)-x-x-x-x-(x)-x-x-x-x-x-(x)-x-x-x-x-x-|
-x-x-x-x-(x)-x-x-x-x-x-(x)-x-x-x-x-x-(x)-x-x-x-x-x-(x)-x-(x)-x-x-x-x-(x)-x-x-x-x-x-(x)-x-x-x-x-x-|
 + o   +  o  +   o   +  o  +   o   +  o  +   o   +  o  +       o   +  o  +   o   +  o  + 
 o   +
pre-chorus cont w/wah-wah
--------------------------------------------------|
--------------------------------------------------|
--------------------------------------------------|
-(x)-x-x-x-x-x-(x)-x--x-x-x-x-x-x-x-x-x-x-x-x-----|
-(x)-x-x-x-x-x-(x)-x--x-x-x-x-x-x-x-x-x-x-x-x-----|
-(x)-x-x-x-x-x-(x)-x--x-x-x-x-x-x-x-x-x-x-x-x-15\-|
  o  +   o   +  o  +
pre chorus 2 (dist)
-------------------------------------------------------------------|
-------------------------------------------------------------------|
-------------------------------------5-5-5-5-5---------------------|
-6-6-6-6---------0-0-(0)-(0)-(0)-0-0-5-5-5-5-5-(x)-x-x-x-x---------|
-6---6-----------0-0-(0)-(0)-(0)-0-0-3-3-3-3-3-(x)-x-x-x-x-<4>-----|
-6---6---0-3^-3^-0-0-(0)-(0)-(0)-0-0-----------(x)-x-x-x-x-----12\-|
                                                +    o   +  o

chorus (dist)
-------------------------------------------------------------|
-------------------------------------------------------------|
-------------------------------------------------------------|
-------------------------6-6-6-------------------------6-6-6-|
-------------------------6-6-6-------------------------6-6-6-|
-0-0-0-3^p0-0-3^p0-0-0-0-6-6-6-0-0-0-3^p0-0-3^p0-0-0-0-6-6-6-|

chorus cont (dist)
---------------------------------|
---------------------------------|
-5-5-5-5-5-5-x-------------------|
-5-5-5-5-5-5-x-6-6-6-6-6-6-6-6-6-|
-3-3-3-3-3-3-x-6-6-6-6-6-6-6-6-6-|
---------------6-6-6-6-6-6-6-6-6-|

chorus cont (dist)
-------------------------------------------------------------|
-------------------------------------------------------------|
-------------------------------------------------------------|
-------------------------6-6-6-------------------------6-6-6-|
-------------------------6-6-6-------------------------6-6-6-|
-0-0-0-3^p0-0-3^p0-0-0-0-6-6-6-0-0-0-3^p0-0-3^p0-0-0-0-6-6-6-|

chorus cont (dist)
---------------------------------|
---------------------------------|
-5-5-5-5-5-5-x-------------------|
-5-5-5-5-5-5-x-6-6-6-6-6-6-6-6-6-|
-3-3-3-3-3-3-x-6-6-6-6-6-6-6-6-6-|
---------------6-6-6-6-6-6-6-6-6-|

chorus cont (dist)
-------------------------------------------------------------|
-------------------------------------------------------------|
-------------------------------------------------------------|
-------------------------6-6-6-------------------------6-6-6-|
-------------------------6-6-6-------------------------6-6-6-|
-0-0-0-3^p0-0-3^p0-0-0-0-6-6-6-0-0-0-3^p0-0-3^p0-0-0-0-6-6-6-|

chorus cont (dist)
---------------------------------|
---------------------------------|
-5-5-5-5-5-5-x-------------------|
-5-5-5-5-5-5-x-6-6-6-6-6-6-6-6-6-|
-3-3-3-3-3-3-x-6-6-6-6-6-6-6-6-6-|
---------------6-6-6-6-6-6-6-6-6-|

chorus 2 (dist)
--------------------------------------------------------------------------|
--------------------------------------------------------------------------|
--------------------------------------------------------------5-----------|
-------------------------6-6-6-------------------------6-6-6--5--6--6-3-3-|
-------------------------6-6-6-------------------------6-6-6--3--6--6-3-3-|
-0-0-0-3^p0-0-3^p0-0-0-0-6-6-6-0-0-0-3^p0-0-3^p0-0-0-0-6-6-6-----6--6-3-3-|
                                                                      * *

interlude 1 (dist)-theres 2 interludes played together i will put both
-------------------------------------------------------------------|
-------------------------------------------------------------------|
-7-7-7-7-7-7-10-10-10-10-10-10-12-12-12-12-12-12-15-15-15-15-15-15-|
-x-x-x-x-x-x--x--x--x--x--x--x--x--x--x--x--x--x--x--x--x--x--x--x-|
-5-5-5-5-5-5--8--8--8--8--8--8-10-10-10-10-10-10-13-13-13-13-13-13-|
-------------------------------------------------------------------|

interlude 2 (dist) this is played behind interlude 1 as rythem guitar
-------------------------------------------------|
-------------------------------------------------|
-7-7-7-7-7-7-5-5-5-5-5-5-3-3-3-3-3-3-8-8-8-8-8-8-|
-x-x-x-x-x-x-x-x-x-x-x-x-x-x-x-x-x-x-x-x-x-x-x-x-|
-5-5-5-5-5-5-3-3-3-3-3-3-1-1-1-1-1-1-6-6-6-6-6-6-|
-------------------------------------------------|

interlude 3 (dist)-theres 2 interludes played together i will put both
----------------------------------------------------------------|
----------------------------------------------------------------|
-7-7-7-7-7-7-10-10-10-10-10-10-12-12-12-12-12-12-8-8-8-8-/-10-8-|
-x-x-x-x-x-x--x--x--x--x--x--x--x--x--x--x--x--x-x-x-x-x----x-x-|
-5-5-5-5-5-5--8--8--8--8--8--8-10-10-10-10-10-10-6-6-6-6-/--8-6-|
----------------------------------------------------------------|

interlude 4 (dist) this is played behind interlude 3 as rythem guitar
----------------------------------------------------|
----------------------------------------------------|
-7-7-7-7-7-7-5-5-5-5-5-5-3-3-3-3-3-3-8-8-8-8-/-10-8-|
-x-x-x-x-x-x-x-x-x-x-x-x-x-x-x-x-x-x-x-x-x-x----x-x-|
-5-5-5-5-5-5-3-3-3-3-3-3-1-1-1-1-1-1-6-6-6-6-/--8-6-|
----------------------------------------------------|

the interludes are played 3x altogether and this is the part that starts when you play the
interlude the secound time you can here it

fill 1 w/wah-wah
-----------|
-----------|
-----------|
-----------|
-----------|
-3/0-3-5-1-|

interlude 4 end 3rd time (dist)
-----------------------------------------------------------------|
-----------------------------------------------------------------|
-8-8-8-8-8-------------------------------7-7-7-7-7-7-7-7-7-7-7-7-|
-x-x-x-x-x-8\-0-0-0-0-0-0-0-0----0-0-0-0-7-7-7-7-7-7-7-7-7-7-7-7-|
-6-6-6-6-6----0-0-0-0-0-0-0-0----0-0-0-0-5-5-5-5-5-5-5-5-5-5-5-5-|
--------------0-0-0-0-0-0-0-0----0-0-0-0-------------------------|
              * * * * * * * *
              gradually lift pm

interlude 4 cont (dist)
---------------------------------------------------------------|
---------------------------------------------------------------|
---------------------------------------------------------------|
-------------------------------------------------------3p0-0-3-|
-------------------------------------------------------3p0-0-3-|
-0-0-0-3^p0-0-3^p0-0-0-0-6-6-6-0-0-0-3^p0-0-3^p0-0-0-0-3p0-0-3-|

chorus (dist)
-------------------------------------------------------------|
-------------------------------------------------------------|
-------------------------------------------------------------|
-------------------------6-6-6-------------------------6-6-6-|
-------------------------6-6-6-------------------------6-6-6-|
-0-0-0-3^p0-0-3^p0-0-0-0-6-6-6-0-0-0-3^p0-0-3^p0-0-0-0-6-6-6-|

chorus cont (dist)
---------------------------------|
---------------------------------|
-5-5-5-5-5-5-x-------------------|
-5-5-5-5-5-5-x-6-6-6-6-6-6-6-6-6-|
-3-3-3-3-3-3-x-6-6-6-6-6-6-6-6-6-|
---------------6-6-6-6-6-6-6-6-6-|

chorus cont (dist)
-------------------------------------------------------------|
-------------------------------------------------------------|
-------------------------------------------------------------|
-------------------------6-6-6-------------------------6-6-6-|
-------------------------6-6-6-------------------------6-6-6-|
-0-0-0-3^p0-0-3^p0-0-0-0-6-6-6-0-0-0-3^p0-0-3^p0-0-0-0-6-6-6-|

chorus cont (dist)
---------------------------------|
---------------------------------|
-5-5-5-5-5-5-x-------------------|
-5-5-5-5-5-5-x-6-6-6-6-6-6-6-6-6-|
-3-3-3-3-3-3-x-6-6-6-6-6-6-6-6-6-|
---------------6-6-6-6-6-6-6-6-6-|

chorus cont (dist)
-------------------------------------------------------------|
-------------------------------------------------------------|
-------------------------------------------------------------|
-------------------------6-6-6-------------------------6-6-6-|
-------------------------6-6-6-------------------------6-6-6-|
-0-0-0-3^p0-0-3^p0-0-0-0-6-6-6-0-0-0-3^p0-0-3^p0-0-0-0-6-6-6-|

chorus cont (dist)
---------------------------------|
---------------------------------|
-5-5-5-5-5-5-x-------------------|
-5-5-5-5-5-5-x-6-6-6-6-6-6-6-6-6-|
-3-3-3-3-3-3-x-6-6-6-6-6-6-6-6-6-|
---------------6-6-6-6-6-6-6-6-6-|

chorus 3 (dist)
--------------------------------------------------------------------------|
--------------------------------------------------------------------------|
--------------------------------------------------------------5-----------|
-------------------------6-6-6-------------------------6-6-6--5--6--(6)-3-|
-------------------------6-6-6-------------------------6-6-6--3--6--(6)-3-|
-0-0-0-3^p0-0-3^p0-0-0-0-6-6-6-0-0-0-3^p0-0-3^p0-0-0-0-6-6-6-----6--(6)-3-|

outro (dist)
-------------------------------------------------------------|
-------------------------------------------------------------|
-------------------------------------------------------------|
-------------------------6-6-6-------------------------------|
-------------------------6-6-6-------------------------------|
-0-0-0-3^p0-0-3^p0-0-0-0-6-6-6-0-0-0-3^p0-0-3^p0-0-0-0-1h3-1-|

outro cont (dist)
----------------------------------------------------------|
----------------------------------------------------------|
-----------------------------------8-----8-----8----------|
-------------------------6-6-6-----7-----7-----7----------|
-------------------------6-6-6-----6-----6-----6----------|
-0-0-0-3^p0-0-3^p0-0-0-0-6-6-6-0-0---0-0---0-0---0-0-/12\-|
                               * *   * *   * *   * *
outro cont (dist)
-------------------------------------------------------------|
-------------------------------------------------------------|
-------------------------------------------------------------|
-------------------------6-6-6-------------------------------|
-------------------------6-6-6-------------------------------|
-0-0-0-3^p0-0-3^p0-0-0-0-6-6-6-0-0-0-3^p0-0-3^p0-0-0-0-1h3-1-|

outro 2 (dist)
------------------------------------------------------------|
------------------------------------------------------------|
-----------------------------------8-----8-----8------------|
-------------------------6-6-6-----7-----7-----7----------0-|
-------------------------6-6-6-----6-----6-----6----------0-|
-0-0-0-3^p0-0-3^p0-0-0-0-6-6-6-0-0---0-0---0-0---0-0-/12\-0-|
                               * *   * *   * *   * *

            
            
Suggest correction
Creating personal tab
Creating personal tab
You can edit any tab online and save it as your Personal.

You can edit, replace or remove any tab part or add personal notes – all changes will be seen only by you.

Personal tabs can be accessed anytime from any device, even offline.
Learn more »
comments
print report bad tab
1 comment total.
0 reply
sonyashadron 10 Dec 30, 2006 06:59 PM

this is 100% perfect

guest
You may want to rate the tab now too:
select rating
Wanna post a correction for this tab? Suggest correction