Oops, an error
Loading. Please wait.

Vampires tab

version 3
version 3

Whole song

Interactive

4,988 views 6 this week
no commentswrite comment
1 2 3 4 5
1 last vote to show rating
add to favorites
×
Save as Personal and add changes to this tab that will be seen only by you. Learn more ›
×
You can save this tab as Personal to edit and correct it or add notes. All changes will be seen only by you. Learn more »
launch autoscroll
font size
0
reset
how to read this tab
guitar tuner
backing track
0:00
0:00
edit
Autoscroll
slow
fast
+/-
esc
set tempo
stop
Vampires
---------

song-  Vampires
band-  Godsmack
album- Awake
year-  2000


Drop D (D A D G B e)

sorry everybody i don't have all of the lead parts.


Intro    gtr 1                               here gtr 2 comes in 


|---------------------|---------------------|---------------------|------|
|---------------------|---------------------|---------------------|------|
|---------------------|---------------------|---------------------|------|
|0--0--0h3--3--0h5--5-|0--0--0h3--3--0h5--5-|0--0--0h3--3--0h5--5-|0-----|
|0--0--0h3--3--0h5--5-|0--0--0h3--3--0h5--5-|0--0--0h3--3--0h5--5-|0-----|
|0--0--0h3--3--0h5--5-|0--0--0h3--3--0h5--5-|0--0--0h3--3--0h5--5-|0-----|


gtr 1

 /-------------------------------------2x-------------------------------\

|---------------------|---------------------|---------------------|------|
|---------------------|---------------------|---------------------|------|
|---------------------|---------------------|---------------------|------|
|0--0--0h3--3--0h5--5-|0--0--0h3--3--0h5--5-|0--0--0h3--3--0h5--5-|0-----|
|0--0--0h3--3--0h5--5-|0--0--0h3--3--0h5--5-|0--0--0h3--3--0h5--5-|0-----|
|0--0--0h3--3--0h5--5-|0--0--0h3--3--0h5--5-|0--0--0h3--3--0h5--5-|0-----|


gtr 2

(i'm not sure wut he's doin)


gtrs 1 & 2

|---------------------|---------------------|---------------------|------|
|---3-----------------|---3-----------------|---3-----------------|------|
|---2-----------------|---2-----------------|---2-----------------|------|
|0--0--0h3--3--0h5--5-|0--0--0h3--3--0h5--5-|0--0--0h3--3--0h5--5-|0-----|
|0--0--0h3--3--0h5--5-|0--0--0h3--3--0h5--5-|0--0--0h3--3--0h5--5-|0-----|
|0--0--0h3--3--0h5--5-|0--0--0h3--3--0h5--5-|0--0--0h3--3--0h5--5-|0-----|

 /-------------------------------------2x-------------------------------\

|---------------------|---------------------|---------------------|------|
|---------------------|---------------------|---------------------|------|
|---------------------|---------------------|---------------------|------|
|0--0--0h3--3--0h5--5-|0--0--0h3--3--0h5--5-|0--0--0h3--3--0h5--5-|0-----|
|0--0--0h3--3--0h5--5-|0--0--0h3--3--0h5--5-|0--0--0h3--3--0h5--5-|0-----|
|0--0--0h3--3--0h5--5-|0--0--0h3--3--0h5--5-|0--0--0h3--3--0h5--5-|0-----|


|---------------------|-------------------------|
|---------------------|-------------------------|
|---------------------|-------------------------|
|0--0--0h3--3--0h5--5-|0---------0h3--3--0h5--5-|
|0--0--0h3--3--0h5--5-|0--0-0-0--0h3--3--0h5--5-|
|0--0--0h3--3--0h5--5-|0--0-0-0--0h3--3--0h5--5-|
                          PM---|

|---------------------|-----------------------------------------------|
|---------------------|-------------------------------------------3---|
|---------------------|-------------------------------------------2---|
|0--0--0h3--3--0h5--5-|0--0--x-x--0h3--3--0h3--3--0h3--3--0h3--3--0---|
|0--0--0h3--3--0h5--5-|0--0--x-x--0h3--3--0h3--3--0h3--3--0h3--3--0---|
|0--0--0h3--3--0h5--5-|0--0--x-x--0h3--3--0h3--3--0h3--3--0h3--3--0---|


                                  /-----------------4x-----------------\

|-------------------|------------|---------------------|----------------|
|-------------------|------------|---------------------|----------------|
|-------------------|------------|---------------------|----------------|
|3-3--0--3-3-3-3--0-|------------|3-3--0--3-3-3-3--0-0-|0h3--0h3--0-0--0|
|3-3--0--3-3-3-3--0-|------------|3-3--0--3-3-3-3--0-0-|0h3--0h3--0-0--0|
|3-3--0--3-3-3-3--0-|------------|3-3--0--3-3-3-3--0-0-|0h3--0h3--0-0--0|


gtr 1

 /-----------------2x-----------------\

|---------------------|----------------|-------------------|
|---------------------|----------------|-------------------|
|---------------------|----------------|-------------------|
|3-3--0--3-3-3-3--0-0-|0h3--0h3--0-0--0|3-3--0--3-3-3-3--0-|
|3-3--0--3-3-3-3--0-0-|0h3--0h3--0-0--0|3-3--0--3-3-3-3--0-|
|3-3--0--3-3-3-3--0-0-|0h3--0h3--0-0--0|3-3--0--3-3-3-3--0-|


gtr 2

(i'm not sure wut he's doin)


gtr 1

|-----------------------------|
|-----------------------------|
|-----------------------------|
|-----------------------------|
|-----------------------------|
|1-1-1-1-1-1-1-1-1-1-1-1-1-1--|
 PM-------------------------|


gtrs 1 & 2

 /------------------3x------------------\

|----------------------------------------|-------------------------|
|----------------------------------------|-------------------------|
|----------------------------------------|-------------------------|
|----------------------------------------|1-1--1-1--1-1--1-1--1--1-|
|1p0--0-0--3p0--0--6p0--0-0-0--1p0--0-0--|1-1--1-1--1-1--1-1--1--1-|
|1p0--0-0--3p0--0--6p0--0-0-0--1p0--0-0--|1-1--1-1--1-1--1-1--1--1-|
      PM-|      PM      PM---|      PM-|

 /------------------3x------------------\

|----------------------------------------|-------------------------|
|----------------------------------------|-------------------------|
|----------------------------------------|-------------------------|
|----------------------------------------|1-1--1-1--1-1--1-1--1--1-|
|1p0--0-0--3p0--0--6p0--0-0-0--1p0--0-0--|1-1--1-1--1-1--1-1--1--1-|
|1p0--0-0--3p0--0--6p0--0-0-0--1p0--0-0--|1-1--1-1--1-1--1-1--1--1-|
      PM-|      PM      PM---|      PM-|


gtr 1 (Rythm)

 /------------------3x------------------\

|----------------------------------------| ---
|----------------------------------------|  |
|----------------------------------------|  |
|----------------------------------------|  |
|1p0--0-0--3p0--0--6p0--0-0-0--1p0--0-0--|  |
|1p0--0-0--3p0--0--6p0--0-0-0--1p0--0-0--|  |
      PM-|      PM      PM---|      PM-|    |
                                            2x
|------------------------------------|      |
|------------------------------------|      |
|------------------------------------|      |
|------------------------------1--1--|      |
|1p0--0-0--3p0--0--6p0--0-0-0--1--1--|      |
|1p0--0-0--3p0--0--6p0--0-0-0--1--1--|     ---
      PM-|      PM      PM---|



gtr 2 (Solo)  w/ wah

 TP---------------------|    TP        TP     TP         TP      TP

|------------------------13-----13--------16------16---------19-----19--|
|3----6----9----12----12-----12-----12/15-----15------15/18------18-----|
|-----------------------------------------------------------------------|
|-----------------------------------------------------------------------|
|-----------------------------------------------------------------------|
|-----------------------------------------------------------------------|

    TP     TP 

|------22-------22--22--22\--|
|18/21-----21---21--21--21\--|
|----------------------------|
|----------------------------|
|----------------------------|
|----------------------------|

end of Solo


gtrs 1 & 2

 /----------------------------------2x--------------------------------\

|-----------------------------------|----------------------------------|
|-----------------------------------|----------------------------------|
|-----------------------------------|----------------------------------|
|------------------------------1--1-|-----------------------1--1-------|
|1p0--0-0--3p0--0--6p0--0-0-0--1--1-|1p0--0-0--3p0--0--6p0--1--1--0-0--|
|1p0--0-0--3p0--0--6p0--0-0-0--1--1-|1p0--0-0--3p0--0--6p0--1--1--0-0--|
      PM-|      PM      PM---|            PM-|                    PM-|

|------------------------------------|--------------------|--------|
|--------------------------------3---|--------------------|--------|
|--------------------------------2---|--------------------|--------|
|1--1-------1--1-------1p0-------0---|--------------------|--------|
|1--1--0-0--1--1--0-0--1p0--0-0--0---|--------------------|12\-----|
|1--1--0-0--1--1--0-0--1p0--0-0--0---|--------------------|12\-----|
       PM-|       PM-|      PM-|

gtr 1                                         here gtr 2 comes in 


|---------------------|---------------------|---------------------|------|
|---------------------|---------------------|---------------------|------|
|---------------------|---------------------|---------------------|------|
|0--0--0h3--3--0h5--5-|0--0--0h3--3--0h5--5-|0--0--0h3--3--0h5--5-|0-----|
|0--0--0h3--3--0h5--5-|0--0--0h3--3--0h5--5-|0--0--0h3--3--0h5--5-|0-----|
|0--0--0h3--3--0h5--5-|0--0--0h3--3--0h5--5-|0--0--0h3--3--0h5--5-|0-----|


gtrs 1 & 2

 /-------------------------------------2x-------------------------------\

|---------------------|---------------------|---------------------|------|
|---------------------|---------------------|---------------------|------|
|---------------------|---------------------|---------------------|------|
|0--0--0h3--3--0h5--5-|0--0--0h3--3--0h5--5-|0--0--0h3--3--0h5--5-|0-----|
|0--0--0h3--3--0h5--5-|0--0--0h3--3--0h5--5-|0--0--0h3--3--0h5--5-|0-----|
|0--0--0h3--3--0h5--5-|0--0--0h3--3--0h5--5-|0--0--0h3--3--0h5--5-|0-----|


Outro    gtr 1

 /--------3x---------\

|---------------------|
|---3-----------------|
|---2-----------------|
|0--0--0h3--3--0h5--5-|
|0--0--0h3--3--0h5--5-|
|0--0--0h3--3--0h5--5-|



gtr 2

 /-----------3x-----------\

|--------------------------|
|--------------------------|
|7--7--7/10--10--10/12--12-|
|x--x--x-x---x----x--x---x-|
|5--5--5/8---8----8/10--10-|
|--------------------------|



Tab Legend
-----------

PM       palm mute
h        hammer on
p        pull off
/        slide up
\        slide down
TP       tremolo picking
x        muted string



this is a very easy song even the solo! Please Rate! 

            
            
Suggest correction
Creating personal tab
Creating personal tab
You can edit any tab online and save it as your Personal.

You can edit, replace or remove any tab part or add personal notes – all changes will be seen only by you.

Personal tabs can be accessed anytime from any device, even offline.
Learn more »
Give kudos to tab author, rate the tab!
1 2 3 4 5
comments
print report bad tab
guest
You may want to rate the tab now too:
select rating
Wanna post a correction for this tab? Suggest correction