Oops, an error
Loading. Please wait.

Voodoo Bass Tab

version 10
version 10

Whole song

Interactive

79 views 18 this week
no commentswrite comment
1 2 3 4 5
3 more votes to show rating
add to favorites
launch autoscroll
font size
0
reset
guitar tuner
Autoscroll
slow
fast
+/-
esc
set tempo
stop
Help us to improve Ultimate-Guitar.com Take our survey!
×
Author
Difficulty
Tuning
novice
D A D G B E
************************************
Title: Voodoo
Artist: Godsmack
Album: Godsmack
Tempo = 120 bpm
4/4 Time Signature
************************************

[Rest]
G|------------------------|
D|o----------------------o|
A|o----------------------o| x9
D|------------------------|

[Verse 1]
G|------------------------|------------------------|------------------------|------------------------|
D|o---------------------3-|----4--3----------------|----------------------3-|----4--3---------------o|
A|o------3----------------|----------3-----------3-|-------3----------------|----------3------------o| x7
D|-3--------3--3----------|----------------4-------|-3--------3--3----------|----------------4--3--4-|

[Bridge]
G|------------------------|------------------------|------------------------|------------------------|
D|----------------------3-|----4--3----------------|------------------------|------------------------|
A|-------3----------------|----------3-------------|------------------------|------------------------|
D|-3--------3--3----------|----------------4--3--3-|-1-----1--1--1--1--1--1-|-1----------------------|

[Chorus]
G|------------------------|------------------------|------------------------|------------------------|
D|-------------------3--1-|------------------------|-------------------1----|------------------------|
A|-------1-----1--3-------|----3-----------1-----3-|-------1-----1--3-------|------------------------|
D|-3--------3-------------|----------3--3-----3----|-3--------3----------/6-|----6--5--5--6--5--1--1-|

G|------------------------|------------------------|------------------------|------------------------|
D|-------------------3--1-|------------------------|-------------------1----|------------------------|
A|-------1-----1--3-------|----3-----------1-----3-|-------1-----1--3-------|------------------------|
D|-h3-------3-------------|----------3--3-----3----|-3--------3-----------1-|----3--3----------------|

[Verse 1]
G|------------------------|------------------------|------------------------|------------------------|
D|o---------------------3-|----4--3----------------|----------------------3-|----4--3---------------o|
A|o------3----------------|----------3-----------3-|-------3----------------|----------3------------o| x5
D|-3--------3--3----------|----------------4-------|-3--------3--3----------|----------------4--3--4-|

[Bridge]
G|------------------------|------------------------|------------------------|------------------------|
D|----------------------3-|----4--3----------------|------------------------|------------------------|
A|-------3----------------|----------3-------------|------------------------|------------------------|
D|-3--------3--3----------|----------------4--3--3-|-1-----1--1--1--1--1--1-|-1----------------------|

[Chorus]
G|------------------------|------------------------|------------------------|------------------------|
D|-------------------3--1-|------------------------|-------------------1----|------------------------|
A|-------1-----1--3-------|----3-----------1-----3-|-------1-----1--3-------|------------------------|
D|-3--------3-------------|----------3--3-----3----|-3--------3----------/6-|----6--5--5--6--5--1--1-|

G|------------------------|------------------------|------------------------|------------------------|
D|o------------------3--1-|------------------------|-------------------1----|-----------------------o|
A|o------1-----1--3-------|----3-----------1-----3-|-------1-----1--3-------|-----------------------o| x2
D|-h3-------3-------------|----------3--3-----3----|-3--------3----------/6-|----6--5--5--6--5--1--1-|

G|------------------------|------------------------|------------------------|------------------------|
D|-------------------3--1-|------------------------|-------------------1----|------------------------|
A|-------1-----1--3-------|----3-----------1-----3-|-------1-----1--3-------|------------------------|
D|-h3-------3-------------|----------3--3-----3----|-3--------3-----------1-|----3--3----------------|

[Verse 1]
G|------------------------|------------------------|------------------------|------------------------|
D|----------------------3-|----4--3----------------|----------------------3-|----4--3----------------|
A|-------3----------------|----------3-----------3-|-------3----------------|----------3-------------|
D|-3--------3--3----------|----------------4-------|-3--------3--3----------|----------------4--3--4-|

[Verse 2]
G|------------------------|------------------------|------------------------|------------------------|
D|o---------------------3-|----4--3----------------|------------------------|-----------------------o|
A|o------3----------------|----------3-------------|------------------------|-----------------------o| x2
D|-3--------3--3----------|----------------4--3--3-|-1-----1--1--1--1--1--1-|-1-----1--1--1--1--1--1-|

[Bridge]
G|------------------------|------------------------|------------------------|------------------------|
D|----------------------3-|----4--3----------------|------------------------|------------------------|
A|-------3----------------|----------3-------------|------------------------|------------------------|
D|-3--------3--3----------|----------------4--3--3-|-1-----1--1--1--1--1--1-|-1----------------------|

[Chorus]
G|------------------------|------------------------|------------------------|------------------------|
D|-------------------3--1-|------------------------|-------------------1----|------------------------|
A|-------1-----1--3-------|----3-----------1-----3-|-------1-----1--3-------|------------------------|
D|-3--------3-------------|----------3--3-----3----|-3--------3----------/6-|----6--5--5--6--5--1--1-|

G|------------------------|------------------------|------------------------|------------------------|
D|o------------------3--1-|------------------------|-------------------1----|-----------------------o|
A|o------1-----1--3-------|----3-----------1-----3-|-------1-----1--3-------|-----------------------o| x2
D|-h3-------3-------------|----------3--3-----3----|-3--------3----------/6-|----6--5--5--6--5--1--1-|

G|------------------------|------------------------|------------------------|------------------------|
D|-------------------3--1-|------------------------|-------------------1----|------------------------|
A|-------1-----1--3-------|----3-----------1-----3-|-------1-----1--3-------|------------------------|
D|-h3-------3-------------|----------3--3-----3----|-3--------3-----------1-|----3--3----------------|

[Verse 1]
G|------------------------|------------------------|------------------------|------------------------|
D|o---------------------3-|----4--3----------------|----------------------3-|----4--3---------------o|
A|o------3----------------|----------3-----------3-|-------3----------------|----------3------------o| x3
D|-3--------3--3----------|----------------4-------|-3--------3--3----------|----------------4--3--4-|

[Outro]
G|------------------------|------------------------|------------------------|
D|----------------------3-|----4--3----------------|------------------------|
A|-------3----------------|----------3-----------3-|------------------------|
D|-3--------3--3----------|----------------4-------|-4--4--3----------------|

************************************
Legend
h - hammer on
/ - slide up
************************************
Suggest correction
Give kudos to tab author, rate the tab!
1 2 3 4 5
comments
print report bad tab
guest
You may want to rate the tab now too:
select rating
Wanna post a correction for this tab? Suggest correction