Oops, an error
Loading. Please wait.

Whatever bass

version 1
version 1

Whole song

Interactive

7,741 views 3 this week
1 commentread comment
1 2 3 4 5
x 4
add to favorites
×
Save as Personal and add changes to this tab that will be seen only by you. Learn more ›
×
You can save this tab as Personal to edit and correct it or add notes. All changes will be seen only by you. Learn more »
launch autoscroll
font size
0
reset
guitar tuner
edit
Autoscroll
slow
fast
+/-
esc
set tempo
stop
Band: Godsmack
Song: Whatever
CD: Godsmack
Year: 1998

The other tabs for this song were wrong, so I decided to transcribe my own version. ENJOY!

Intro:
                    (x7)
G|---------------------|
D|---------------------|
A|---------------------|
C|--0-0---0-2-0-2-0-2--|

G|-------|
D|-------|
A|-------|
C|--0-0--|

Verse 1 (x8)

G|---------------------|
D|---------------------|
A|---------------------|
C|--0-0---0-2-0-2-0-2--|

Chorus:

G|-----------------------------------------------|
D|-----------------------------------------------|
A|-----------------------------------------------|
C|--2~~~~~~~~~~~~---6~~~~~~~---9~~~~~~~~---0--0--|

G|------------------------------------------------------|
D|------------------------------------------------------|
A|------------------------------------------------------|
C|--2~~~~~~~~~~~~---6~~~~~~~---9~~~~~~~~---0--0---0--0--|

Post Chorus 1 (x3)

G|-----------------------------------------------|
D|-----------------------------------------------|
A|-----------------------------------------------|
C|--2~~~~~~---4~~~~~~~---6~~~~~~~~---8~~~~~~~~~--|

Verse 2:

                   (x12)
G|---------------------|
D|---------------------|
A|---------------------|
C|--0-0---0-2-0-2-0-2--|

G|-----------|
D|-----------|
A|-----------|
C|--2~~~~~~--|

Chorus (x2)

Post Chorus 2 (x2)
                                             (x3)
G|-----------------------------------------------|
D|-----------------------------------------------|
A|-----------------------------------------------|
C|--2~~~~~~---4~~~~~~~---6~~~~~~~~---8~~~~~~~~~--|

G|------------|
D|------------|
A|------------|
C|--8-7--8-8--|

Bridge:
(bass follows drums here)(x16)
G|--------------------|
D|--------------------|
A|--------------------|
C|--0-0-1--0-0-0-0-2--|
         (x4)
G|----------|
D|----------|
A|----------|
C|--2--0-0--|

Post Chorus 2 (x2)
                                              (x3)
G|-----------------------------------------------|
D|-----------------------------------------------|
A|-----------------------------------------------|
C|--2~~~~~~---4~~~~~~~---6~~~~~~~~---8~~~~~~~~~--|

G|------------|
D|------------|
A|------------|
C|--8-7--8-8--|

Outro:

                    (x7)
G|---------------------|
D|---------------------|
A|---------------------|
C|--0-0---0-2-0-2-0-2--|

G|---------|
D|---------|
A|---------|
C|--0-2-2--|

END

            
            
Suggest correction
Creating personal tab
Creating personal tab
You can edit any tab online and save it as your Personal.

You can edit, replace or remove any tab part or add personal notes – all changes will be seen only by you.

Personal tabs can be accessed anytime from any device, even offline.
Learn more »
comments
print report bad tab
1 comment total.
0 reply
brett dixon 141 Jul 09, 2007 04:06 AM

pretty good

guest
You may want to rate the tab now too:
select rating
Wanna post a correction for this tab? Suggest correction